Cifra Club

Soberano

Armando Filho

Cifra: Principal
exibições 41.271
Tom: A#
Tom: A#

Intro: Gm F D# (F) Gm

E|----------10-13-11-10----10---------------------------|
B|-11h13-13-------------13----13-11-11-10---------------|
G|----------------------------------------12-10-10/12---|
D|------------------------------------------------------|
A|------------------------------------------------------|
E|------------------------------------------------------|

 Gm                           (RIFF 1)
Antes que vinhesse a existir
   F                            (RIFF 2)
Traçaste um plano lindo para mim
    D#                        F      Gm  (RIFF 3)
Quiseste me usar por teu louvor, Senhor
 Gm                             (RIFF 4)
Quanta coisa linda a contemplar
   F                           (RIFF 5)
E em Teu nome gente a libertar
   D#                     F   Gm      G7
Quiseste e usar pro Teu louvor, Senhor

    Cm        F   Bb       Gm
Hoje em vim dizer o que está em mim
    Cm                        D       (RIFF 6)
Por todo lado há luta nesse prosseguir
    Cm     F       Bb   Gm
Uma voz me diz que devo parar
           Cm            D              (RIFF 7)
Mas outra voz maior me faz assim cantar
     Cm       D    Gm
Soberano és tú Senhor
Cm                 D  (RIFF 7)
Soberano és tú Senhor

refrão:
    Cm  F    Bb  Gm
Soberano, Soberano
    Cm     D      Gm G7
Soberano és Tu Senhor
   Cm  F    Bb Gm
Soberano, Soberano
     Cm      D     Gm (RIFF 8)
Soberano És tú Senhor

     Cm    F
Quer no bom viver ,
   Bb    Gm
ou na provação
     C       D     Gm
Soberano És Tu Senhor
     Cm       D   Gm
Soberano És Tú Senhor



Parte A:

RIFF 1:

E|-----------------------|
B|-11-10-----------------|
G|-------12-10-----------|
D|-------------13-12-10--|
A|-----------------------|
E|-----------------------|


RIFF 2:

E|--------------------------------|
B|-11-10--------------------------|
G|-------12-10----------10-10-12--|
D|-------------10-10-10-----------|
A|--------------------------------|
E|--------------------------------|


RIFF 3:

E|--------------------------------|
B|-11-10--------------------------|
G|-------12-10----------10-12-----|
D|-------------12h13-10-------12--|
A|--------------------------------|
E|--------------------------------|


RIFF 4:

E|--------------------------------|
B|-11/13-13-11-10-----------------|
G|----------------12-10-----------|
D|----------------------13-12-10--|
A|--------------------------------|
E|--------------------------------|


RIFF 5:

E|-------------------7/10-10-11-10-13-11-10-----------|
B|-13-11----------11------------------------13-11--10-|
G|-------14-12-14-------------------------------------|
D|----------------------------------------------------|
A|----------------------------------------------------|
E|----------------------------------------------------|


RIFF 6:

E|---------------------------8----------8/10-10-8-----|
B|-10-8--------------8-10-11---11-10-11-----------11--|
G|------11-9----9-11----------------------------------|
D|-----------12---------------------------------------|
A|----------------------------------------------------|
E|----------------------------------------------------|


RIFF 7:

E|-14h15-14-12-14-11-10-|
B|----------------------|
G|----------------------|
D|----------------------|
A|----------------------|
E|----------------------|


RIFF 8: (Bem parecido com a introdução, é o solo de transição para a parte B da música).

E|-------10-13-11-10----10---------------------------|
B|-11-13-------------13----13-11-11-10---------------|
G|-------------------------------------12-10-10/12---|
D|---------------------------------------------------|
A|---------------------------------------------------|
E|---------------------------------------------------|

Obs: Os solos da parte A se encaixam na parte B.
Acordes para:
    Colaboração e revisão:

    0 comentários

      mostrar mais comentários

      Conseguiu tocar?

      2tocaram0ainda não

      Grave um vídeo tocando Soberano e mande pra gente!

      00:00 / 00:00
      outros vídeos desta música
      repetirqualidadeautomática
      Outro vídeos desta música
        00:00 / 00:00
        automática
        OK