Cifra Club

Aprenda

Longe

Arnaldo Antunes

Cifra: Principal (violão e guitarra)
tom: C
(intro) Dm G Dm G C

C                 Dm
Onde é que eu fui parar
 G            C
Aonde é esse aqui
                   Dm
Não dá mais pra voltar
   G                 Dm G   Dm G
Porque eu fiquei tão longe, longe

C             Dm
Onde é esse lugar
 G           C
Aonde está você
             Dm
Não pega celular
    G              Dm G   Dm G
E a Terra está tão longe, longe
Dm                   G
Não passa um carro sequer
Dm              G
Todo comércio fechou
C                  Em                 Dm                G
Não tem satélite algum transmitindo notícias de onde eu estou
Dm               G
Nenhum e-mail chegou
Dm               G
Nenhum correio virá
C                 Em                   Dm               G
Eu entre quatro paredes sem porta ou janela pro tempo passar

( Dm G Dm G C Em Dm G )

Dm                   G
Dizem que a vida é assim
Dm                G
Cinco sentidos em mim
C                    Em                   Dm                   G
Dentro de um corpo fechado No vácuo de um quarto No espaço sem fim

             Dm
Aonde está você
        G          C
Por que é que você foi
                  Dm
Não quero te esquecer
    G             Dm G   Dm G
Mas já fiquei tão longe, longe
C                  Dm
Não dá mais pra voltar
   G           C
Eu nem me despedi
                     Dm
Aonde é que eu vim parar
    G                 Dm G   Dm G   Dm G   Dm G
Por que eu fiquei tão longe, longe, longe, longe
(Dm G)
Longe, longe, longe, longe

(solo)
E |------------------------------------88-----------------------------------------------
B |--------------------------------88-----8b10--8p5------5-5----------------------------
G |---7b---7-9-7-9-7-9-7v---------------------------7-5------7p5------------------------
D |---------------------------------------------------------------7-5-------------------
A |--------------------------------------------------------------------7----------------
E |-------------------------------------------------------------------------------------

E |-------------------------------------------------------------------------------------
B |----------------------------------------------8b10---8-5-8-5-8p5---5--5--------------
G |---------5h7-5-----------5s7--4--------9b-7b-5--------------------7-7-----5v---------
D |------5h7-----------5-7-5--------5---------------------------------------------------
A |---5h7-----------5h7---------------7-------------------------------------------------
E |-------------------------------------------------------------------------------------

E |-------------------------------------------------------------------------------------
B |----------------------------8----5b7-------------------------------------------------
G |-------5-5s7-------------------------5-7---------------------------------------------
D |----5h7---------5----------------------------5---------------------------------------
A |-------------------------------------------------------------------------------------
E |-------------------------------------------------------------------------------------
Composição de Arnaldo Antunes / Carlinhos Brown / Marisa Monte
Colaboração e revisão:
  • Danilo Miranda
24.812 exibições
    • ½ Tom
    • A
    • Bb
    • B
    • C
    • Db
    • D
    • Eb
    • E
    • F
    • F#
    • G
    • Ab
  • Adicionar à lista

    0 comentários

    Ver todos os comentários

    Conseguiu tocar?

    1 Tocaram 0 Ainda não

    Grave um vídeo tocando Longe e nos envie!

    00:00 / 00:00
    Outros vídeos desta música
    Repetir Qualidade Automático
    Outros vídeos desta música
    00:00 / 00:00
    Automático

    Cifra Club Pro

    Aproveite o Cifra Club com benefícios exclusivos e sem anúncios
    Cifra Club Pro
    Aproveite o Cifra Club com benefícios exclusivos e sem anúncios
    OK