Cifra Club

Taste The Touch

Asteria

Tab de baixo: Principal
exibições 324
                      _____________________________
                     \_____________________________/

Tabbed By: Brian
E-Mail: *

Album: Slip Into Something More Comfortable

Key:
~~~~~ = Let the note ring

Intro (No Bass; Only guitars)

Verse 1
G|---------------------------------------------------------------------|
D|---------------------------------------------------------------------|
A|7777777777777777-2222222222222222-3333333333333333-22222222-55555555-|
E|---------------------------------------------------------------------|

G|--------------------------------------------------------------|
D|--------------------------------------------------------------|
A|7777777777777777-2222222222222222-3333333333333333-22222222-5-|
E|--------------------------------------------------------------|

Chorus 1
G|---------------------------------------------------------------------|
D|---------------------------------------------------------------------|
A|3333333333333333-----------------------------------------------------|
E|-----------------3333333333333333-2222222222222222-33333333-55555555-|

G|-----------------------------------------------------------------|
D|-----------------------------------------------------------------|
A|3333333333333333-------------------------------------------------|
E|-----------------3333333333333333-2222222222222222-33333333-5432-|

Verse 2
G|---------------------------------------|
D|-5--5--5---5--5--5---5--5--5---5--5--5-|
A|5--5--5---2--2--2---5--5--5---2--2--2--|
E|---------------------------------------|

G|--------------------------------------|
D|-5--5--5---5--5--5---5--5--5---5------|
A|5--5--5---2--2--2---5--5--5---2--5-5--|
E|--------------------------------------|

Chorus 2
G|---------------------------------------------------------------------|
D|---------------------------------------------------------------------|
A|3333333333333333-----------------------------------------------------|
E|-----------------3333333333333333-2222222222222222-33333333-55555555-|

G|-----------------------------------------------------------------|
D|-----------------------------------------------------------------|
A|3333333333333333-------------------------------------------------|
E|-----------------3333333333333333-2222222222222222-33333333-5432-|

Bridge Pt.1
G|---------------------------------------|
D|---------------------------------------|
A|7--7-2--2-3--3-2-5--7--7-2--2-3--3-2-5-|
E|---------------------------------------|

G|---------------------------------------|
D|---------------------------------------|
A|7--7-2--2-3--3-2-5--7--7-2--2-3--3-2-5-|
E|---------------------------------------|

G|---------------------------------------|
D|---------------------------------------|
A|7--7-2--2-3--3-2-5--7--7-2--2-3--3-2-5-|
E|---------------------------------------|

Bridge Pt.2
G|---------------------------------------------------------------|
D|---------------------------------------------------------------|
A|77-222-000-333-222-333-5-5-5-5--77-222-000-333-222-333-5-5-5-5-|
E|---------------------------------------------------------------|

G|-------------------------------------------------------------------------|
D|-------------------------------------------------------------------------|
A|77-222-000-333-222-333-5-5-5-5--77-222-000-333-222-333-5-5-5-5-5-5-5-5-5-|
E|-------------------------------------------------------------------------|

Rest (Drum solo)

Chorus 3
G|---------------------------------------------------------------------|
D|---------------------------------------------------------------------|
A|3333333333333333-----------------------------------------------------|
E|-----------------3333333333333333-2222222222222222-33333333-55555555-|

G|-----------------------------------------------------------------|
D|-----------------------------------------------------------------|
A|3333333333333333-------------------------------------------------|
E|-----------------3333333333333333-2222222222222222-33333333-5432-|

Outro
G|--------------------------------------|
D|-5--5--5---5--5--5---5--5--5---5------|
A|5--5--5---2--2--2---5--5--5---2--5-5--|
E|--------------------------------------|

That's the end and I hope you enjoyed the tab! :)
Composição: Asteria

0 comentários

mostrar mais comentários

Conseguiu tocar?

0 tocaram 0 ainda não

Grave um vídeo tocando Taste The Touch e mande pra gente!

00:00 / 00:00
outros vídeos desta música
repetir qualidade Automático
Outros vídeos desta música
00:00 / 00:00
Automático
OK