Cifra Club

Cité Tango

Astor Piazzolla

Cifra: Principal (violão e guitarra)
tom: Am
E|------0-----0----|-----0-----0----|-----0-----0----|-----0-----0----|
B|------1-----1----|-----1-----1----|-----1-----1----|-----1-----1----|
G|-----2------2----|-----2-----2----|-----2-----2----|-----2-----2----|
D|-----2------2----|-----2-----2----|-----2-----2----|-----2-----2----|
A|-----0------0----|-----0-----0----|-----0-----0----|-----0-----0----|
E|-----------------|----------------|----------------|----------------|

E|-----1-----1----|-----1-----1----|-----1-----1----|-----1-----1----|
B|-----0-----0----|-----0-----0----|-----0-----0----|-----0-----0----|
G|-----6-----6----|-----6-----6----|-----6-----6----|-----6-----6----|
D|-----3-----3----|-----3-----3----|-----3-----3----|-----3-----3----|
A|----------------|----------------|----------------|----------------|
E|----------------|----------------|----------------|----------------|

E|-----0-----0----|-----0-----0----|-----0-----0----|-----0-----0----| |
B|-----1-----1----|-----1-----1----|-----1-----1----|-----1-----1----| |
G|-----2-----2----|-----2-----2----|-----2-----2----|-----2-----2----| |
D|-----2-----2----|-----2-----2----|-----2-----2----|-----2-----2----| |
A|-----0-----0----|-----0-----0----|-----0-----0----|-----0-----0----| |
E|----------------|----------------|----------------|----------------| |


Guitarra 2:

E|----------------------------|----------------------------|
B|----------------------------|----------------------------|
G|----------------------------|--------------0-------------|
D|--2/3--(3)--(3)--4---3------|-----2--3--4-----4--3--2----|
A|----------------------------|----------------------------|
E|----------------------------|----------------------------|

E|----------------------------|----------------------------|
B|----------------------------|----------------------------|
G|-----------------0--0--1----|--1--0--0-------------------|
D|--2--3--3--4--4-------------|-----------4--4--3--3--2----|
A|----------------------------|----------------------------|
E|----------------------------|----------------------------|

E|----------------------------|----------------------------|
B|----------------------------|----------------------------|
G|------------------0---------|-----------0--1--0----------|
D|--3/4--(4)--(4)--------4----|-----3--4-----------4--3----|
A|----------------------------|----------------------------|
E|----------------------------|----------------------------|

E|----------------------------|----------------------------|
B|----------------------------|----------------------------|
G|-----------0--0--1--1--2----|--2--1--1--0--0-------------|
D|--3--4--4-------------------|-----------------4--4--3----|
A|----------------------------|----------------------------|
E|----------------------------|----------------------------|


Bajo:

G|--------------------------------|
D|--------------------------------|
A|-----0----| €-----------0-----€--- x4
E|--3-3--------------3-3----------|

G|---------------------------------|
D|---------------------------------|
A|-----1----| €------------1-----€--- x4
E|--3/5--------------3/5-----------|

€=silencio, corresponde a un tiempo.
Pasa del sol a la(1ra parte) y de sol a la#(2da parte) muy rapido.


Flauta/Parte melodica:

E|-------|----------------|----------------|
B|--1----|--0-------------|--0--1----------|
G|-------|-----------2----|-----------2----|
D|-------|----------------|----------------|
A|-------|----------------|----------------|
E|-------|----------------|----------------|

                           Esta parte se toca rapido
E|--0------------------------0-----0----------|
B|------------------------------3-----1--1----|
G|--------------------------------------------|
D|--------------------------------------------|
A|--------------------------------------------|
E|--------------------------------------------|

E|----------------|----------------|--7----|-------|--5----|--3--------1----|
B|--0--------1----|--3--------0----|-------|-------|-------|----------------|
G|----------------|----------------|-------|-------|-------|----------------|
D|----------------|----------------|-------|-------|-------|----------------|
A|----------------|----------------|-------|-------|-------|----------------|
E|----------------|----------------|-------|-------|-------|----------------|

E|--5----|--3--------1----|--0----|----------------------------| |
B|-------|----------------|-------|--3-----------1--------0----| |
G|-------|----------------|-------|----------------------------| |
D|-------|----------------|-------|----------------------------| |
A|-------|----------------|-------|----------------------------| |
E|-------|----------------|-------|----------------------------| |
00:00 / 00:00
Outros vídeos desta música
Repetir
Outros vídeos desta música
Composição de Astor Piazzolla
114 exibições
    • ½ Tom
    • Am
    • Bbm
    • Bm
    • Cm
    • C#m
    • Dm
    • Ebm
    • Em
    • Fm
    • F#m
    • Gm
    • G#m
  • Adicionar à lista

    0 comentários

    Ver todos os comentários

    Conseguiu tocar?

    0 Tocaram 0 Ainda não

    Grave um vídeo tocando Cité Tango e nos envie!

    Toque também

    1. Imagem do artista Carlos Gardel Por Una Cabeza Carlos Gardel
    2. Imagem do artista Adriana Varela Pedacito de Cielo Adriana Varela
    3. Imagem do artista Roberto Goyeneche El cantor de Buenos Aires Roberto Goyeneche
    4. Imagem do artista Daniel Melingo Sin Luna Daniel Melingo

    Entre para oCifra Club PRO

    Tenha acesso a benefícios exclusivos no App e no Site

    • Chega de anúncios

    • Prioridade de compra em lançamentos

    • Mais recursos no app do Afinador

    • Atendimento Prioritário

    • Descontos nos produtos Cifra Club

    • Ajude a produzir mais conteúdo

    00:00 / 00:00

    Cifra Club Pro

    Aproveite o Cifra Club com benefícios exclusivos e sem anúncios
    Cifra Club Pro
    Aproveite o Cifra Club com benefícios exclusivos e sem anúncios
    OK