Cifra Club

Aprenda

8 Holes

Astroboy

Cifra: Principal (violão e guitarra)
tom: D
 |     |     |     |     |
 | D   | A   | B   | G   |
 |     |     |     |     |

2da GUITARRA:

\ne|-----------------|-----------------|-----------------|-----------------
B|-----------------|-----------------|-----------------|-----------------|
G|-----------------|-----------------|-----------------|-----------------| X 2
D|-7-7-5-5-4-4-----|-5-5-4-4---------|-4-4-------------|-----------------|
A|-------------7-7-|---------7-7-5-5-|-----7-7-5-5-4-4-|---------4-4-5-5-|
E|-----------------|-----------------|-----------------|-5-5-7-7---------|
/

   \n E  |--10--| X 4
B|--10--|
    .

\ne|-----------------|-----------------|-----------------|-----------------|
B|-----------------|-----------------|-----------------|---------7-------|
G|---------7-------|---------7-------|---------7-------|-7-7-7-7-----7---|
D|-7-7-7-7-----7---|-7-7-7-7-----7---|-9-9-9-9-----9---|-----------------|
A|-----------------|-----------------|-----------------|-----------------|
E|-----------------|-----------------|-----------------|-----------------|
/


PUNTEO FINAL:

\ne|--------------------|
B|--------------------|
G|-11-11-11-11-9------|
D|---------------12-9-|
A|--------------------|
E|--------------------|
/


      11             11             11
     /             /             /  \n  |-9----9-7--7--|-9----9-7--7--|-9----9-7--7--|-----------------|
E|--------------|--------------|--------------|-9---9-9-9-9-7-7-|
Composição de Un flaco ahi
    • ½ Tom
    • A
    • Bb
    • B
    • C
    • Db
    • D
    • Eb
    • E
    • F
    • F#
    • G
    • Ab
  • Adicionar à lista

    0 comentários

    Ver todos os comentários

    Conseguiu tocar?

    0 Tocaram 0 Ainda não

    Grave um vídeo tocando 8 Holes e nos envie!

    00:00 / 00:00
    Outros vídeos desta música
    Repetir Qualidade Automático
    Outros vídeos desta música
    00:00 / 00:00
    Automático

    Cifra Club Pro

    Aproveite o Cifra Club com benefícios exclusivos e sem anúncios
    Cifra Club Pro
    Aproveite o Cifra Club com benefícios exclusivos e sem anúncios
    OK