Cifra Club

Aprenda

Mal Mal Mal

Astroboy

Cifra: Principal (violão e guitarra)
tom: D
E||-------------------------|-------------------------|
B||--3--5------3--5-3--5-3--|--3--5------3--5-3--5-3/-|
G||-------------------------|-------------------------|
D||-------------------------|-------------------------|
A||-------------------------|-------------------------|
E||-------------------------|-------------------------|

                                         [x]
E|----------------------------|-------------------------|
B|--8--10------8--10-8--10-8--|--3--5------3--5-3--5-3--|
G|----------------------------|-------------------------|
D|----------------------------|-------------------------|
A|----------------------------|-------------------------|
E|----------------------------|-------------------------|


Donde aparece la [x] comienza

[GUITAR 2]                G                       A
E||---------------------|------------------------|------------------------|
B||---------------------|------------------------|------------------------|
G||---------------------|-----4------4h-5-4------|-----6------6h-7-6------|
D||------------0--2--3--|--5------------------5/-|--7------------------7--|
A||---------------------|------------------------|------------------------|
E||---------------------|------------------------|------------------------|

[MAIN RIFF]           B||-3--5------3--5-3--5-3--|--3--5-----3--5-3--5-3/-|



[GUITAR 2]
    C                          G
E||---------------------------|------------------------|
B||---------------------------|------------------------|
G||------9------9h-10-9-------|-----4------4h-5-4------|
D||--10-------------------10/-|--5------------------5/-|
A||---------------------------|------------------------|
E||---------------------------|------------------------|

[MAIN RIFF]
B||--8--10-----8--10-8--10-8--|--3--5-----3--5-3--5-3--|








                       [VERSE_1]
[GUITAR 1]
   G                           A
E||--------------------------|--------------------------|
B||--------------------------|--------------------------|
G||-----4-----4-----4-----4--|-----6-----6-----6-----6--|
D||-----5-----5-----5-----5--|-----7-----7-----7-----7--|
A||-----5-----5-----5-----5--|-----7-----7-----7-----7--|
E||--3-----3-----3----3------|--5-----5-----5----5------|


[GUITAR 2]
   Pienso entrar sin mas vacilaciones, sin dicimular...
E||--------------------------|--------------------------|
B||--------------------------|--------------------------|
G||--4-----4-----4----4------|--6-----6-----6-----6-----|
D||--5-----5-----5----5------|--7-----7-----7-----7-----|
A||--5-----5-----5----5------|--7-----7-----7-----7-----|
E||--3-----3-----3----3------|--5-----5-----5-----5-----|

Escuchá como se alternan las guitarras como la tablatura indica




                       [CHORUS]

   MAL MAL MAL MAL    MUY MAL
     F           C        G
E||--1--1--1--1--0-----0--3-|
B||--1--1--1--1--1-----1--3-|
G||--2--2--2--2--0-----0--0-|
D||--3--3--3--3--2-----2--0-|
A||--3--3--3--3--3-----3--2-|
E||--1--1--1--1--0-----0--3-|




                       [VERSE_2]



[GUITAR 1: LEAD]
E||------------|--------------------------|--------------------------|
B||------------|--------------------------|--------------------------|
G||------------|-----7--5--4-----4h5--4---|-----9--7--6-----6h7--6---|
D||---0--2--3--|--5-----------5-----------|--7-----------7-----------|
A||------------|--------------------------|--------------------------|
E||------------|--------------------------|--------------------------|


[GUITAR 2]
                Pienso entrar sin mas vacilaciones, sin dicimular...
             E||--------------------------|--------------------------|
             B||--------------------------|--------------------------|
             G||--4-----4-----4----4------|--6-----6-----6-----6-----|
             D||--5-----5-----5----5------|--7-----7-----7-----7-----|
             A||--5-----5-----5----5------|--7-----7-----7-----7-----|
             E||--3-----3-----3----3------|--5-----5-----5-----5-----|


[CHORUS]


[BASS G  O]
G||-------------------------|-------------------------|
D||-------------------------|-------------------------|
A||-----5---------5----5----|-----7---------7----7----|
E||--3---------3----3----3--|--5---------5----5----5--|



E|----------------------------|-------------------------|
B|----------------------------|-------------------------|
G|-----10---------10----10----|-----5---------5----5----|
D|--8----------8-----8-----8--|--3---------3----3----3--|


INTRO AGAIN

VERSE3

CHORUS





                        Lyric
                        '''''
[VERSE1]
        G                           A
        Pienso entrar sin mas vacilaciones, sin disimular
        G                             A
        y encontrar reflejo en mis canciones, que vuelven a estar...

[CHORUS]
        F               C        G
        MAL MAL MAL MAL MAL, MUY MAL    2x

[VERSE2]
        Pienso entrar en todas direcciones, sin disimular
        y encontrar vacias emociones, que vuelven a estar...

[CHORUS]

[BASS G  O]

[VERSE3]
        Pienso entrar sin mas vacilaciones, sin disimular
        y busco tu reflejo en mis acciones, que vuelven a estar...
Compositor não encontrado.
    • ½ Tom
    • A
    • Bb
    • B
    • C
    • Db
    • D
    • Eb
    • E
    • F
    • F#
    • G
    • Ab
  • Adicionar à lista

    0 comentários

    Ver todos os comentários

    Conseguiu tocar?

    0 Tocaram 0 Ainda não

    Grave um vídeo tocando Mal Mal Mal e nos envie!

    00:00 / 00:00
    Outros vídeos desta música
    Repetir Qualidade Automático
    Outros vídeos desta música
    00:00 / 00:00
    Automático

    Cifra Club Pro

    Aproveite o Cifra Club com benefícios exclusivos e sem anúncios
    Cifra Club Pro
    Aproveite o Cifra Club com benefícios exclusivos e sem anúncios
    OK