Cifra Club

Declaration

ATEEZ

Cifra: Principal (violão e guitarra)
Selo Cifra Club: esta cifra foi revisada para atender aos critérios oficiais da nossa Equipe de Qualidade.
tom: G
E|-----3---3---3---|-----2---2---2---|-----3---3---3---3---3---3---3---|
B|---0---0---0---0-|---1---1---1---1-|---0---0---0---0---0---0---0---0-|
G|-----------------|-----------------|---------------------------------|
D|-----------------|-----------------|---------------------------------|
A|-----------------|-3---------------|---------------------------------|
E|-0---------------|-----------------|-3-------------------------------|

E|-----3---3---3---|-----------------|-------------------------|
B|---0---0---0---0-|-----3---3---3---|-----0---0---0-----------|
G|-----------------|---0---0---0---0-|-------------------------| Start
D|-----------------|-----------------|---0---0---0---0---0---0-| of
A|-----------------|-3---------------|-----------------0-------| ANSWER
E|-0---------------|-----------------|-3-------------------2---|
Outros vídeos desta música
    19 exibições
      • ½ Tom
      • A
      • Bb
      • B
      • C
      • Db
      • D
      • Eb
      • E
      • F
      • F#
      • G
      • Ab
    • Adicionar à lista

    Afinação da cifra

    Afinador online

      0 comentários

      Ver todos os comentários

      Conseguiu tocar?

      0Tocaram0Ainda não

      Grave um vídeo tocando Declaration e nos envie!

      Entre para o Cifra Club PRO

      Tenha acesso a benefícios exclusivos no App e no Site

      • Chega de anúncios

      • Badges exclusivas

      • Mais recursos no app do Afinador

      • Atendimento Prioritário

      • Aumente seu limite de lista

      • Ajude a produzir mais conteúdo

      Cifra Club Pro

      Aproveite o Cifra Club com benefícios exclusivos e sem anúncios
      Cifra Club Pro
      Aproveite o Cifra Club com benefícios exclusivos e sem anúncios
      Ops (: Contenido disponible sólo en portugués.
      OK