Cifra Club

Aprenda

Be Yourself

Audioslave

Cifra: Principal (violão e guitarra)
Tom: D (forma dos acordes no tom de C) Capotraste na 2ª casa
Introdução: Am  F7M(11+)
            Am  F7M(11+)

   Am            F7M(11+)
E|-------------------------0----------------|
B|-1----0h1p0------------0------------------|
G|-2-------------------2--------------------|  (2x)
D|-2-----------------3----------------------|
A|-0---------------0------------------------|
E|---------------1--------------------------|


Primeira Parte:

(Parte 1 - 2x)

E|-5------3/---7--8----10\7--7----8\3--3/5------------|
B|------5---------------------------------------------|
G|----------------------------------------------------|
D|----------------------------------------------------|
A|----------------------------------------------------|
E|----------------------------------------------------|

E|-5------3/---7--8----7\3--3-------7\5---------------|
B|------5------------------------5--------------------|
G|----------------------------------------------------|
D|----------------------------------------------------|
A|----------------------------------------------------|
E|----------------------------------------------------|

Someone falls to pieces
Sleeping all alone
Someone kills the pain
Spinning in the silence
She finally drifts away

(Parte 2)

E|-5------3/---7--8----10\7--7----8\3--3/5------------|
B|------5---------------------------------------------|
G|----------------------------------------------------|
D|----------------------------------------------------|
A|----------------------------------------------------|
E|----------------------------------------------------|

E|-5------3/---7--8----7\3--3-------------------------|
B|------5---------------------------------------------|
G|----------------------------------------------------|
D|----------------------------------------------------|
A|----------------------------------------------------|
E|----------------------------------------------------|

Someone gets excited
In a chapel-yard
And catches a bouquet
Another lays a dozen
                   Dm
White roses on a grave


Refrão:

        Am
And to be yourself 
   C                 F
Is all that you can do
 Dm
Hey
    Am
To be yourself 
   C                 F  Dm
Is all that you can do


Segunda Parte:

(Parte 1)

E|-5------3/---7--8----7\3--3-------7\5---------------|
B|------5------------------------5--------------------|
G|----------------------------------------------------|
D|----------------------------------------------------|
A|----------------------------------------------------|
E|----------------------------------------------------|

E|-5------3/---7--8----10\7--7----8\3--3/5------------|
B|------5---------------------------------------------|
G|----------------------------------------------------|
D|----------------------------------------------------|
A|----------------------------------------------------|
E|----------------------------------------------------|

E|-5------3/---7--8----7\3--3-------7\5---------------|
B|------5------------------------5--------------------|
G|----------------------------------------------------|
D|----------------------------------------------------|
A|----------------------------------------------------|
E|----------------------------------------------------|

( A5  C5  F5  D5  )

A5                   C5
   Someone finds salvation 
   F5
In everyone
  D5              A5
Another only pain
                  C5
Someone tries to hide himself
        F5               D5
Down inside himself he prays

(Parte 2)

E|-5------3/---7--8----10\7--7----8\3--3/5------------|
B|------5---------------------------------------------|
G|----------------------------------------------------|
D|----------------------------------------------------|
A|----------------------------------------------------|
E|----------------------------------------------------|

E|-5------3/---7--8-----------------------------------|
B|------5---------------------------------------------|
G|----------------------------------------------------|
D|----------------------------------------------------|
A|----------------------------------------------------|
E|----------------------------------------------------|

A5                      C5
   Someone swears his true love
          F5
Until the end of time
  D5           A5
Another runs away
              C5
Separate or united
 F            Dm
Healthy or insane


Refrão:

     Am
And be yourself 
   C                 F
Is all that you can do
                   Dm
(All that you can do)

    Am
To be yourself 
   C                 F
Is all that you can do
                   Dm
(All that you can do)

    Am
To be yourself 
   C                 F
Is all that you can do
                   Dm
(All that you can do)

    Am
To be yourself 
   C                 F  Dm
Is all that you can do


Solo: 

(Parte 1)

E|----------------------------------------------------|
B|----------------------------------------------------|
G|----------------------------------------------------|
D|----------------------------------------------------|
A|-0--2--3--5--7--5--3--2--0--2--3--5--3--2--0--------|
E|----------------------------------------------3-----|

E|----------------------------------------------------|
B|----------------------------------------------------|
G|----------------------------------------------------|
D|----------------------------------------------------|
A|-0--2--3--5--7--8--7--8--10--8--7--5--7--7--7--7----|
E|----------------------------------------------------|

(Parte 2)

E|----------------------------------------------------|
B|----------------------------------------------------|
G|-----------------5----------------------------------|
D|-5h7--7-7-7--7-7---7-7--7--7-7----------------------|
A|----------------------------------------------------|
E|----------------------------------------------------|

E|----------------------------------------------------|
B|-------5--8--7--------------------------------------|
G|-5--7-----------7--5--------------------------------|
D|----------------------7-----------------------------|
A|----------------------------------------------------|
E|----------------------------------------------------|

(Parte 3)

E|----------------------------------------------------|
B|----------------------------------------------------|
G|-----------------5h7--7-7-7--7-7--------------------|
D|-5h7--7-7-7--7-7------------------------------------|
A|----------------------------------------------------|
E|----------------------------------------------------|

E|----------------------------------------------------|
B|-7b8--b8-b8-b8r7--7-7-7b8--b8-b8-b8r7--7-7----------|
G|-7b8--b8-b8-b8r7--7-7-7b8--b8-b8-b8r7--7-7----------|
D|----------------------------------------------------|
A|----------------------------------------------------|
E|----------------------------------------------------|

E|----------------------------------------------------|
B|-7b8--b8-b8-b8r7--5--7--5---------------------------|
G|-7b8--b8-b8-b8r7--5--7--5---------------------------|
D|---------------------------7--5\--------------------|
A|----------------------------------------------------|
E|----------------------------------------------------|

Interlúdio:

   F7M            G6
E|-------0--------------0-------------------|
B|-----1----1--------------3----------------|
G|---2--------2-------4------4--------------|
D|--------------3---5----------5------------|
A|------------------------------------------|
E|-1--------------3-------------------------|

   Am9
E|-------0----------------------------------|
B|-----0----0-------------------------------|
G|---5--------5-----------------------------|
D|--------------7---------------------------|
A|------------------/7---5---3--------------|
E|-5----------------------------------------|
F7M                   G6
    Even when you've paid enough
 Am9            ( E        D   C )
Been put upon or been held up

F7M               G6
    Every single memory of 
     Am9
The good or bad
( E        D   C )
 Faces of luck

F7M                  G6
    Don't lose any sleep tonight
         Am9
I'm sure everything 
   ( E         D    C )
Will end up alright

F7M                 G6
    You may win or lose
     Am
But be yourself 
   C                 F   Dm
Is all that you can do, yeah
    Am
To be yourself 
   C                 F  Dm
Is all that you can do


Refrão Final:

    Am
To be yourself 
   C                 F
Is all that you can do
                   Dm
(All that you can do)

    Am
To be yourself 
   C                 F
Is all that you can do
                   Dm
(All that you can do)

    Am            C
To be yourself is all that you can
F                Dm
  Be yourself is all that you can
Am
   Be yourself
   C                 F  Dm  F
Is all that you can do

E|----------------------------------------------------|
B|----------------------------------------------------|
G|----------------------------------------------------|
D|----------------------------------------------------|
A|-0--2--3--5--7--5--3--2--0--2--3--5--3--2--0--------|
E|----------------------------------------------3-----|

E|----------------------------------------------------|
B|----------------------------------------------------|
G|----------------------------------------------------|
D|----------------------------------------------------|
A|-0--2--3--5--7--8--7--8--12--10--8--7--7--7--7--7---|
E|----------------------------------------------------|
Composição de Audioslave / Chris Cornell 471.996 exibições
    • ½ Tom
    • A
    • Bb
    • B
    • C
    • Db
    • D
    • Eb
    • E
    • F
    • F#
    • G
    • Ab
  • Adicionar à lista

    0 comentários

    Mostrar mais comentários
    00:00 / 00:00
    outros vídeos desta música
    repetir qualidade Automático
    Outros vídeos desta música
    00:00 / 00:00
    Automático
    Capítulos
    • Tocando a Música
    • Dicas Iniciais / Equipamentos
    • Configurações do Amplificador
    • Acordes da Introdução
    • Tocando a Introdução
    • Ensinando a Introdução
    • Dicas para a Primeira Parte
    • Tocando a Primeira Parte
    • Primeira Parte - Parte 1 de 2
    • Primeira Parte - Parte 2 de 2
    • Acordes do Refrão
    • Tocando o Refrão
    • Ensinando o Ritmo do Refrão
    • Dicas para a Segunda Parte
    • Acordes Base da Segunda Parte
    • Tocando a Segunda Parte
    • Segunda Parte - Parte 1 de 2
    • Segunda Parte - Parte 2 de 2
    • Ensinando o Ritmo da Base da Segunda Parte
    • Dicas para o Segundo Refrão e Solo
    • Tocando o Segundo Refrão e o Solo
    • Solo - Parte 1 de 3
    • Solo - Parte 2 de 3
    • Solo - Parte 3 de 3
    • Solo - Completo
    • Acordes do Interlúdio
    • Tocando o Interlúdio
    • Ensinando o Interlúdio
    • Tocando o Refrão Final
    • Ensinando Solo do Final
    • Encerramento
    • Ficha Técnica / Erros de Gravação
    OK