Cifra Club

Aprenda

Cochise

Audioslave

Tab de baixo: Principal
Afinação padrão.

Intro:
G|---------------------------|
D|---------------------------|
A|---------------------------|
E|-0-0-0-0-0-0-0-0-0-0-0-0-0-|

Verses:                                   last time
G|-----------------------------------     -------|
D|-----------------------------------     -------|
A|-/7--5---5----------/7--5----------     -5--6--|
E|-------7---7--3--0---------7--3--0-     -------|

Chorus:
G|---------------------------------|
D|---------------------------------|
A|--7---7----------------------5---|
E|----------5-3-0-----3--5--7------|

2:37 riff 
G|---4---4--------4-----4--------4-----4--------4-----4-------|
D|------------------------------------------------------------|
A|-2---2-----2--------2-----2--------2-----2--------2-----2---|
E|------------------------------------------------------------|

G|-------------------------------------------------------------|
D|-------------------------------------------------------------|
A|-7-----7--------7-----7--------7-----7--------7-----7-----5--|
E|----0-----0--------0-----0--------0-----0--------0-----0-----|

End Notes:
G|-----------------------------------|
D|-----------------------------------|
A|--7---7----------------------5-7-7-|
E|----------5-3-0-----3--5--7--------|
Composição de Audioslave / Chris Cornell
Colaboração e revisão:
  • Gabriel
  • Gabriel Leite
25.426 exibições

0 comentários

Ver todos os comentários
00:00 / 00:00
Outros vídeos desta música
Repetir Qualidade Automático
Outros vídeos desta música
00:00 / 00:00
Automático

Cifra Club Pro

Aproveite o Cifra Club com benefícios exclusivos e sem anúncios
Cifra Club Pro
Aproveite o Cifra Club com benefícios exclusivos e sem anúncios
OK