Cifra Club

Like a Stone

Audioslave

Cifra: Solo
exibições 741.034
Tom: A#
Solo:

(Parte 1)
E|------------------------------------------|
B|------------------------------------------|
G|------------------------------------------|
D|------------------------------------------|
A|-/10~---/12--/13~---/15---/13---/12---/10~|
E|------------------------------------------|

E|------------------------------------------|
B|------------------------------------------|
G|------------------------------------------|
D|---------------------------------/12~-----|
A|-/10~---/12--/8~---/13----/15-------------|
E|------------------------------------------|

(Parte 2)
E|------------------------------------------|
B|------------------------------------------|
G|-/15-15-15--14-14-14----------------------|
D|----------------------15-15-15--12-12-12\-|
A|------------------------------------------|
E|------------------------------------------|

E|------------------------------------------|
B|------------------------------------------|
G|-/15-15-15--14-14-14----------------------|
D|----------------------15-15-15--12-12-12\-|
A|------------------------------------------|
E|------------------------------------------|

(Parte 3)
E|------------------------------------------|
B|------------------------------------------|
G|------------------------------------/12---|
D|---------------------/12--/13--/15--------|
A|-/10--/12--/13--/15-----------------------|
E|------------------------------------------|

E|------------------------------------------|
B|------------------------------------------|
G|-/14--15--14--15--14----------------------|
D|------------------------------------------|
A|------------------------------------------|
E|------------------------------------------|

0 comentários

    mostrar mais comentários

    Conseguiu tocar?

    66tocaram1ainda não

    Grave um vídeo tocando Like a Stone e mande pra gente!

    00:00 / 00:00
    outros vídeos desta música
    repetirqualidadeautomática
    Outro vídeos desta música
      00:00 / 00:00
      automática
      Capítulos
      • Tocando o Solo
      • Dicas iniciais / Equipamentos
      • Tocando Solo sem efeito
      • Dicas Solo com Efeito
      • Solo / Pedal - Parte 1 de 3
      • Solo / Pedal - Parte 2 de 3
      • Solo / Pedal - Parte 3 de 3
      • Dicas Finais / Encerramento
      • Ficha Técnica
      OK