Cifra Club

Like a Stone

Audioslave

Tab de baixo: Principal
exibições 114.658
Essa TAB é para quem vai tocar com a corda E com afinação normal. 

Intro - só batera 4 compassos/depois entra o baixo:

G|---------------------------------------------------|
D|------------------------------3--------------------|
A|----5-5-----5-5-----5-5-----5---5------------------|
E|-3-------3-------3-------3-------------------------|

Primeira Parte 4x:

On a cold wet afternoon, in a room full of emptiness...

G|---------------------------------------------------|
D|------------------------------3--------------------|
A|----5-5-----5-5-----5-5-----5---5------------------|
E|-3-------3-------3-------3-------------------------|

Primeiro Refrão:

In your house I long to be...

G|---------------------------------------------------|
D|---------1/3-------------------1/3------5/7-----5--|
A|----0-1------------------0-1-----------------------|
E|-3--------------6/3---3----------------------------|

G|---------------------------------------------------|
D|-5-------------------------------------------------|
A|---6--3----------6/8-------------5/6---------------|
E|-----------3----3-------6/3-----3--------6/3-------|

G|---------------------------------------------------|
D|---------------------------------------------------|
A|--4/5----5555--5---5-5-----------------------------|
E|-3-------------------------------------------------|

(Intro) Segunda Parte: 

G|---------------------------------------------------|
D|-----------------------------------3---------------|
A|-----5-5------5-5------5-5-------5---5-------------|
E|-3---------3---------3---------3-------------------|

Segunda Parte 4x – igual a primeira:

On my deathbed I will pray...

G|---------------------------------------------------|
D|------------------------------3--------------------|
A|----5-5-----5-5-----5-5-----5---5------------------|
E|-3-------3-------3-------3-------------------------|

Segundo Refrão:

In your house I long to be...

G|---------------------------------------------------|
D|---------1/3-------------------1/3------5/7-----5--|
A|----0-1------------------0-1-----------------------|
E|-3--------------6/3---3----------------------------|

G|---------------------------------------------------|
D|-5-------------------------------------------------|
A|---6--3----------6/8-------------5/6---------------|
E|-----------3----3-------6/3-----3--------6/3-------|

G|---------------------------------------------------|
D|---------------------------------------------------|
A|--4/5----5555--5---5-5-----------------------------|
E|-3-------------------------------------------------|
 
Entrada do solo mesmo começo dos Refrões:

G|---------------------------------------------------|
D|---------1/3-------------------1/3------5/7-----5--|
A|----0-1------------------0-1-----------------------|
E|-3--------------6/3---3----------------------------|

G|---------------------------------------------------|
D|---------------------------------------------------|
A|-10/666666666--------6/88888888--------4/55555555-5|
E|-------------33333333----------33333333------------|

Terceira Parte:

For all that I've blessed, and all that I've wronged...

G|---------------------------------------------------|
D|---------------------------------------------------|
A|-6--6------5--5-6--5-6--6-3------------------------|
E|------6--6-----------------------------------------|

G|---------------------------------------------------|
D|---------------------------------------------------|
A|-5-5-5-5-5-5-5-5-5-5-5-5-5-5-5-5-------------------|
E|---------------------------------------------------|

Terceiro e Último Refrão:

G|---------------------------------------------------|
D|---------1/3-------------------1/3------5/7-----5--|
A|----0-1------------------0-1-----------------------|
E|-3--------------6/3---3----------------------------|

G|---------------------------------------------------|
D|-5-------------------------------------------------|
A|---6--3----------6/8-------------5/6---------------|
E|-----------3----3-------6/3-----3--------6/3-------|

G|---------------------------------------------------|
D|---------------------------------------------------|
A|--4/5----5555--5---5-6-----------------------------|
E|-3-------------------------------------------------|
Composição: Audioslave / Chris CornellColaboração e revisão:
  • Bruno Gaio
  • Reginaldo Costa

0 comentários

    mostrar mais comentários

    Conseguiu tocar?

    25tocaram0ainda não

    Grave um vídeo tocando Like a Stone e mande pra gente!

    00:00 / 00:00
    outros vídeos desta música
    repetirqualidadeautomática
    Outro vídeos desta música
      00:00 / 00:00
      automática
      Capítulos
      • Início
      • Tocando a música
      • Tocando Introdução e Primeira Parte
      • Ensinando Introdução e Primeira Parte
      • Tocando Refrão
      • Ensinando Refrão
      • Tocando Solo
      • Ensinando Solo
      • Tocando Terceira Parte
      • Ensinando Terceira Parte
      • Tocando Refrão Final
      • Ensinando Refrão Final
      • Encerramento
      OK