Cifra Club

Aprenda

Boston

Augustana

Tab de baixo: Principal
\=slide down
~=let ring
Don't come in until 1:04

G|---|-----------------|-------------------|
D|---|-----------------|-------------------|
A|15\|3-3-2-2-0-0--0-0-|----3--3-----------|
E|---|------------3---3|1--------1--1-3--3-|

1:18

G|------------------|----------------|----------------------|
D|------------------|----------------|----------------------|
A|3---2---0----0-0--|----3-----------|3--3-2--2-0----0-0-2--|
E|------------3----3|1-------1---3---|--------------3-------|

G|----------------|
D|----------------|
A|----3-----------|
E|1-------1---1-3-|

1:44 (You don't know me...)

G|----------------------------------|
D|----------------------------------|
A|33333333--------------------------|
E|--------33333333-11111111-33333333|

G|-------------------------------|
D|-------------------------------|
A|33333333-----------------------|
E|---------33333333-11111111-3---|

2:10 (She said I think I'll go to Boston...)

G|------------------------------------|  (x4)
D|------------------------------------|
A|33333333----------------------------|
E|---------33333333-11111111-33333333-|

G|-----|
D|-----|
A|3~---|
E|-----|

Rest from 3:04 to 3:15

3:16 (Boston...)

G|------------------------------------|-----------------------------|
D|------------------------------------|-----------------------------|
A|33333333----------------------------|33333333---------------------|
E|---------33333333-11111111-33333333-|---------33333333-11111111-3~|

3:41-Rest until end of song


Yay.
Composição de Augustana
109 exibições

0 comentários

Mostrar mais comentários

Conseguiu tocar?

0 Tocaram 0 Ainda não

Grave um vídeo tocando Boston e mande pra gente!

00:00 / 00:00
outros vídeos desta música
repetir qualidade Automático
Outros vídeos desta música
00:00 / 00:00
Automático

Cifra Club Pro

Aproveite o Cifra Club com benefícios exclusivos e sem anúncios
Cifra Club Pro
Aproveite o Cifra Club com benefícios exclusivos e sem anúncios
OK