Cifra Club

Survive

Auryn

Cifra: Principal (violão e guitarra)
Selo Cifra Club: esta cifra foi revisada para atender aos critérios oficiais da nossa Equipe de Qualidade.
tom: E
Guitar 2  (Distortion)
E|-----|
B|-----|
G|-----|
D|-----|
A|--7--|
E|--5--|

=======================================================================
Chorus

Both Guitars  (Distortion)
E|--------------------------|
B|--------------------------|
G|--xx-9-9--xx-2-2--xx-4-4--|
D|--xx-9-9--xx-2-2--xx-4-4--|
A|--xx-7-7--xx-0-0--xx-2-2--|
E|--------------------------|

=======================================================================
Verse 2

Guitar 1  (Clean)
Play Verse 1

Guitar 2  (Clean)
||----------------------------------------------||
||----------------------------------------------||
||----9--------8-9-----------6-----------8------|| Then follow Verse 1
||------9----9-----9-----------7-----------9----||
||--7------7---------7-----7-----7-----9-----9--||
||-----------------------5-----------7----------||

=======================================================================
Bridge 1

Both Guitars  (Distortion)
||--------------------------||--------|
||--------------------------||--------|
||--9--7-----7--5--9--7--6--||--4--6--|
||--9--7--7--7--5--9--7--7--||--3--7--|
||--7--5--7--5--3--7--5--7--||--5--7--|
||--------5--------------5--||--3--5--|

=======================================================================
Verse 3

Guitar 1  (Clean)
"Sittin' at home, eatin' McDonald's..."
E|--------|
B|--0--2--|
G|--6--2--|
D|--6--2--|
A|--4--0--|
E|--------|

Guitar 2  (Clean)
Join in with Guitar 1 chords after "..supreme"

=======================================================================
Bridge 2

Guitar 1  (Distortion)
Play Bridge for a few measures, then play...
||-----------||--------|
||-----------||--------|
||--9--------||--4--6--|
||--9--9--7--||--3--7--|
||--7--9--7--||--5--7--|
||-----7--5--||--3--5--|

Guitar 2  (Distortion)
Play Bridge for a few measures, then play this when Guitar 1 starts
its second part...
E|------|
B|------|
G|--/9--|
D|---x--|
A|--/7--|
E|------|

=======================================================================
Verse 4

Both Guitars  (Distortion)
E|--------|
B|--0-----|
G|--6-----|
D|--6--7--|
A|--4--7--|
E|-----5--|

=======================================================================
#^(#)  .. Bend to note in ( )
#^(#)r .. Bend to note in ( ) and release to original note
h ....... Hammer on
p ....... Pull off
~ ....... Vibrato/hold note
( ) ..... Held only for a second or hardly heard due to
          feedback, other notes picked, etc.
/........ Slide up
\........ Slide down
Outros vídeos desta música
    3 exibições
      • ½ Tom
      • A
      • Bb
      • B
      • C
      • Db
      • D
      • Eb
      • E
      • F
      • F#
      • G
      • Ab
    • Adicionar à lista

    Afinação da cifra

    Afinador online

      0 comentários

      Ver todos os comentários

      Entre para o Cifra Club PRO

      Tenha acesso a benefícios exclusivos no App e no Site

      • Chega de anúncios

      • Badges exclusivas

      • Mais recursos no app do Afinador

      • Atendimento Prioritário

      • Aumente seu limite de lista

      • Ajude a produzir mais conteúdo

      Cifra Club Pro

      Aproveite o Cifra Club com benefícios exclusivos e sem anúncios
      Cifra Club Pro
      Aproveite o Cifra Club com benefícios exclusivos e sem anúncios
      Ops (: Contenido disponible sólo en portugués.
      OK