Cifra Club

Everything About You

Avant

Cifra: Principal (violão e guitarra)
Selo Cifra Club: esta cifra foi revisada para atender aos critérios oficiais da nossa Equipe de Qualidade.
tom: Em
INTRO:
E|-----------------------------------|
B|--------10x-----8x-----5x-7-7-7-7--|
G|------10--x----8-x----5-x-7-7-7-7--|
D|----10----x---8--x---5--x-7-7-7-7--|
A|-----------------------------------|
E|-10-------x-8----x-5----x-7-7-7-7--| (PA Y ONCE)

E|-----------------------------------|
B|--------10x-----8x-----5x-7--------|
G|------10--x----8-x----5-x-7--------|
D|----10----x---8--x---5--x-7--------|
A|-----------------------------------|
E|-10-------x-8----x-5----x-7--------| (PA Y ONCE)

1ST VERSE:
E|-----------------------------------|
B|--------10x-----8x-----5x-7-7-7-7--|
G|------10--x----8-x----5-x-7-7-7-7--|
D|----10----x---8--x---5--x-7-7-7-7--|
A|-----------------------------------|
E|-10-------x-8----x-5----x-7-7-7-7--|

E|-----------------------------------|
B|--------10x-----8x-----5x-7--------|
G|------10--x----8-x----5-x-7--------|
D|----10----x---8--x---5--x-7--------|
A|-----------------------------------|
E|-10-------x-8----x-5----x-7--------| (PA Y TWICE)

CHORUS:
e|------X----X-----x---------|
B|-10-10X-8-8X-5-5-x-7-7-7-7-|
G|-10-10X-8-8X-5-5-x-7-7-7-7-|
D|-10-10X-8-8X-5-5-x-7-7-7-7-|
A|------X----X-----x---------|
E|-10-10X-8-8X-5-5-x-7-7-7-7-|

e|------X----X-----x---------|
B|-10-10X-8-8X-5-5-x-7-------|
G|-10-10X-8-8X-5-5-x-7-------|
D|-10-10X-8-8X-5-5-x-7-------|
A|------X----X-----x---------|
E|-10-10X-8-8X-5-5-x-7-------| (PA Y THDE  TIMES)

2ND VERSE:
E|-----------------------------------|
B|--------10x-----8x-----5x-7-7-7-7--|
G|------10--x----8-x----5-x-7-7-7-7--|
D|----10----x---8--x---5--x-7-7-7-7--|
A|-----------------------------------|
E|-10-------x-8----x-5----x-7-7-7-7--|

E|-----------------------------------|
B|--------10x-----8x-----5x-7--------|
G|------10--x----8-x----5-x-7--------|
D|----10----x---8--x---5--x-7--------|
A|-----------------------------------|
E|-10-------x-8----x-5----x-7--------| (PA Y THDE  TIMES)

CHORUS:
e|------X----X-----x---------|
B|-10-10X-8-8X-5-5-x-7-7-7-7-|
G|-10-10X-8-8X-5-5-x-7-7-7-7-|
D|-10-10X-8-8X-5-5-x-7-7-7-7-|
A|------X----X-----x---------|
E|-10-10X-8-8X-5-5-x-7-7-7-7-|

e|------X----X-----x---------|
B|-10-10X-8-8X-5-5-x-7-------|
G|-10-10X-8-8X-5-5-x-7-------|
D|-10-10X-8-8X-5-5-x-7-------|
A|------X----X-----x---------|
E|-10-10X-8-8X-5-5-x-7-------| (PA Y TWICE)

3RD VERSE:
E|-----------------------------------|
B|--------10x-----8x-----5x-7-7-7-7--|
G|------10--x----8-x----5-x-7-7-7-7--|
D|----10----x---8--x---5--x-7-7-7-7--|
A|-----------------------------------|
E|-10-------x-8----x-5----x-7-7-7-7--|

E|-----------------------------------|
B|--------10x-----8x-----5x-7--------|
G|------10--x----8-x----5-x-7--------|
D|----10----x---8--x---5--x-7--------|
A|-----------------------------------|
E|-10-------x-8----x-5----x-7--------| (PA Y TWICE)

CHORUS:
e|------X----X-----x---------|
B|-10-10X-8-8X-5-5-x-7-7-7-7-|
G|-10-10X-8-8X-5-5-x-7-7-7-7-|
D|-10-10X-8-8X-5-5-x-7-7-7-7-|
A|------X----X-----x---------|
E|-10-10X-8-8X-5-5-x-7-7-7-7-|

E|------X----X-----x---------|
B|-10-10X-8-8X-5-5-x-7-------|
G|-10-10X-8-8X-5-5-x-7-------|
D|-10-10X-8-8X-5-5-x-7-------|
A|------X----X-----x---------|
E|-10-10X-8-8X-5-5-x-7-------| (PA Y FOUR TIMES THEN TWO MOD  FOR THE OUTRO)
Outros vídeos desta música
    11 exibições
      • ½ Tom
      • Am
      • Bbm
      • Bm
      • Cm
      • C#m
      • Dm
      • Ebm
      • Em
      • Fm
      • F#m
      • Gm
      • G#m
    • Adicionar à lista

    Afinação da cifra

    Afinador online

      0 comentários

      Ver todos os comentários

      Entre para o Cifra Club PRO

      Tenha acesso a benefícios exclusivos no App e no Site

      • Chega de anúncios

      • Badges exclusivas

      • Mais recursos no app do Afinador

      • Atendimento Prioritário

      • Aumente seu limite de lista

      • Ajude a produzir mais conteúdo

      Cifra Club Pro

      Aproveite o Cifra Club com benefícios exclusivos e sem anúncios
      Cifra Club Pro
      Aproveite o Cifra Club com benefícios exclusivos e sem anúncios
      OK