Cifra Club

Aprenda

Twisted Mind

Avantasia

Cifra: Principal (violão e guitarra)
tom: C
Intro:

2x
e|----------------------------------------------------
B|----------------------------------------------------
G|---7---7-8-7-5-7----7-11-12-14-12-11-8-7---7-8-7-5-7
D|---7---7-8-7-5-7----7-11-12-14-12-11-8-7---7-8-7-5-7
A|---5---5-6-5-3-5----5-9--10-12-10-9--6-5---5-6-5-3-5
E|----------------------------------------------------

Agora deixando as cordas vibrarem

e|----------------------------------------------------------------------------------------------------------------
B|----------------------------------------------------------------------------------------------------------------
G|---7---7-8-7-5-7----7-11-12-14-12-11-8-7---7-8-7-5-7-----7---7-8-7-5-7----7-11-12-14-12-11-8-7---7-8-7-5-7--5--8
D|---7---7-8-7-5-7----7-11-12-14-12-11-8-7---7-8-7-5-7-----7---7-8-7-5-7----7-11-12-14-12-11-8-7---7-8-7-5-7--5--8
A|---5---5-6-5-3-5----5-9--10-12-10-9--6-5---5-6-5-3-5-----5---5-6-5-3-5----5-9--10-12-10-9--6-5---5-6-5-3-5--3--6
E|----------------------------------------------------------------------------------------------------------------

Prendendo novamente as cordas

e|----------------------------------------------------------------------------------------------------------------
B|----------------------------------------------------------------------------------------------------------------
G|---7---7-8-7-5-7----7-11-12-14-12-11-8-7---7-8-7-5-7-----7---7-8-7-5-7----7-11-12-14-12-11-8-7---7-8-7-5-7--5--8
D|---7---7-8-7-5-7----7-11-12-14-12-11-8-7---7-8-7-5-7-----7---7-8-7-5-7----7-11-12-14-12-11-8-7---7-8-7-5-7--5--8
A|---5---5-6-5-3-5----5-9--10-12-10-9--6-5---5-6-5-3-5-----5---5-6-5-3-5----5-9--10-12-10-9--6-5---5-6-5-3-5--3--6
E|----------------------------------------------------------------------------------------------------------------

Dm
One of a kind they say
     Am
they've never seen before
     C
Investigate the aberration, 
   G
disorder in the core

  Dm
I never tried to hide away 
    Am
or tried to keep your pace 
     C
You walk me to the slaughter 
         G
with a smile upon your face

Dm,C

Am          C               Em
  From the cradle to the madhouse,
  D
a twisted mind 
Am            C               Em
  There's no way out of this hell 
     D
for twisted mind 
Am         C     Em   D
  there's no way out 
Am         C      D
  there's no way out 

Intro

Dm
You've come to see the healer
    Am
so don't you be afraid
      C
They call me tranquilizer 
     G
I'm here to isolate

    Dm
We paint in black and white and you're 
     Am
the dirty in between
C
Monstrosity of nature
   G
a virulent disease 

Dm, C

Am          C               Em
  From the cradle to the madhouse,
  D
a twisted mind 
Am            C               Em
  There's no way out of this hell 
     D
for twisted mind 
Am         C     Em   D
  there's no way out 
Am         C      D
  there's no way out

2x
e|----------------------------------------------------
B|----------------------------------------------------
G|---5-5-5--5-5-5--5-5-5--5-5-8--7-7-7--7-7-7--7-7-7--
D|---5-5-5--5-5-5--5-5-5--5-5-8--7-7-7--7-7-7--7-7-7--
A|---3-3-3--3-3-3--3-3-3--3-3-6--5-5-5--5-5-5--5-5-5--
E|----------------------------------------------------

G
can't you see 
F
can't you see 
Eb
That you are not like anyone?
G          F                   Eb
You'll never see through anyone else's eyes
G          F                   Eb
And who am I to certify the sanity of a twisted mind
     G           F
A victim of perception, 
  Eb  
a twisted mind
     G         F  
Missprizing, chastising
Eb
Subhuman fragmentizing 
G
Sensation 
F
aberration
Eb
Repulsive, tantalizing


Am          C               Em
  From the cradle to the madhouse,
  D
a twisted mind 
Am            C               Em
  There's no way out of this hell 
     D
for twisted mind 

Am          C               Em
  From the cradle to the madhouse,
  D
a twisted mind 
Am            C               Em
  There's no way out of this hell 
     D
for twisted mind 

Am         C     Em   D
  there's no way out 
Am         C      D
  there's no way out

Intro
Composição de Tobias Sammet
Colaboração e revisão:
  • Rafael Soares
  • Richard Souza
9.423 exibições
    • ½ Tom
    • A
    • Bb
    • B
    • C
    • Db
    • D
    • Eb
    • E
    • F
    • F#
    • G
    • Ab
  • Adicionar à lista

    0 comentários

    Ver todos os comentários

    Conseguiu tocar?

    3 Tocaram 1 Ainda não

    Grave um vídeo tocando Twisted Mind e nos envie!

    00:00 / 00:00
    Outros vídeos desta música
    Repetir Qualidade Automático
    Outros vídeos desta música
    00:00 / 00:00
    Automático

    Cifra Club Pro

    Aproveite o Cifra Club com benefícios exclusivos e sem anúncios
    Cifra Club Pro
    Aproveite o Cifra Club com benefícios exclusivos e sem anúncios
    OK