Notificações Amigos pendentes

      Avenged Sevenfold

      Almost Easy

      101.873 exibições
      Tom: A Afinação: Eb Ab Db Gb Bb Eb
      Afinação: Db Ab Db Gb Bb Eb
      
      Intro pt.1 - (Guitarra 1)
      
              (afunda dps solta)
      
                       |
      E|---------------------------------17b18r~-|
      B|-/18-17-13p10-15~--/18-17-13p10----------|
      G|-----------------------------------------|
      D|-----------------------------------------|
      A|-----------------------------------------|
      D|-----------------------------------------|
      
      
      E|----------------------------/18-17~-17\-|
      B|-/18-17-13p10-15b17--/18-17-------------|
      G|----------------------------------------|
      D|----------------------------------------|
      A|----------------------------------------|
      D|----------------------------------------|
      
      
      
        Intro pt.1 - (Guitarra 2)
      
      E|--------------------------|
      B|--------------------------|
      G|-7--5-----3--5------------|   x2
      D|-7--5--5--3--5------------|
      A|-5--3--5--1--3------------|
      D|-------5------------------|
      
      
      
        Intro pt.2
      
      E|-----------------------------------------------------------------------------|
      B|-----------------------------------------------------------------------------|
      G|-----------------------------------------------------------------------------|
      D|-7\-----------8\6-----6/3-----6/7\-------------------------------------------|
      A|-5\-----------6\4-----4/1-----4/5\-------------------------------------------|
      D|----0-0-0-0-0-----0-0-----0-0------0-0-0-0-0-0--0000--7h8p7h8-0000-8h10p8h10-|
      
      P.M   . . . . .     . .     . .      . . . . . .  ....          ....
      
      
      E|-------------------------------------------------------------------|
      B|-------------------------------------------------------------------|
      G|-------------------------------------------------------------------|
      D|-7\-----------8\6-----6/3-----6/7\---------------------------------|
      A|-5\-----------6\4-----4/1-----4/5\---------------------------------|
      D|----0-0-0-0-0-----0-0-----0-0------0-0-0-0-0-0--00000000--5-6-5~---|
      
      P.M   . . . . .     . .     . .      . . . . . .  ........
      
      
        1°Parte
      
      E|---------------------------------------------------------------|
      B|---------------------------------------------------------------|
      G|---------------------------------------------------------------|   x2
      D|-0--------------0--------------0-------------------------------|
      A|-0--------------0--------------0-------------------------------|
      D|-0-0-0-0-0-0-0--0-0-0-0-0-0-0--0-0-0-0-0-0-0-00000000-5-6-5~---|
      
      P.M   . . . . . .    . . . . . .    . . . . . . ........
      
      
      E|---------------------------------------------------------------|
      B|---------------------------------------------------------------|
      G|---------------------------------------------------------------|
      D|-0--------------0--------------0-------------------------------|
      A|-0--------------0--------------0-------------------------------|
      D|-0-000-000-000--0-000-000-000--0-000-000-000-00000000-5-6-5~---|
      
      P.M   ... ... ...    ... ... ...    ... ... ... ........
      
      
      E|---------------------------------------------------------------|
      B|---------------------------------------------------------------|
      G|---------------------------------------------------------------|
      D|-0--------------0--------------0-------------------------------|
      A|-0--------------0--------------0-------------------------------|
      D|-0-0-0-0-0-0-0--0-0-0-0-0-0-0--0-0-0-0-0-0-0-00000000-5-6-5~---|
      
      P.M  . . . . . .    . . . . . .    . . . . . . ........
      
      
        Pré-Refrão
      
      E|----------------------------------------------------------|
      B|----------------------------------------------------------|
      G|----------------------------------------------------------|
      D|-0-x-7-x-x-2-x-5-x-x--3-x-x--/8---8--8--x-x-3~-3--3-2-2\--| x2
      A|-0-x-5-x-x-3-x-3-x-x--1-x-x--/10--10-10-x-x-3~-3--3-4-4\--|
      D|-0-x---x-x---x---x-x---------/8---8--8--------------------|
      
      
      
        Refrão
      
      E|-------------------------------------------------------------------|
      B|-------------------------------------------------------------------|
      G|-------------------------------------------------------------------|
      D|-3--3-3-3-3--3--3-3-3-3--3--3-3--3--3-3-3-3--3--3-3-3-3--3--3-3-0--|
      A|-3--3-3-3-3--3--3-3-3-3--3--3-3--3--3-3-3-3--3--3-3-3-3--3--3-3-0--|
      D|-3--3-3-3-3--3--3-3-3-3--3--3-3--3--3-3-3-3--3--3-3-3-3--3--3-3-0--|
      
      
      E|-----------------------------------------------------------|
      B|-----------------------------------------------------------|
      G|-----------------------------------------------------------|
      D|-0-0-0-0--0--0-0-0-0--0--0-0--0--0-0-0-0-0-----------------|
      A|-0-0-0-0--0--0-0-0-0--0--0-0--0--0-0-0-0-0-----------------|
      D|-0-0-0-0--0--0-0-0-0--0--0-0--0--0-0-0-0-0-00000000-5-6-5~-|
      
      P.M                                          ........
      
      
        2°Parte
      
      E|---------------------------------------------------------------|
      B|---------------------------------------------------------------|
      G|---------------------------------------------------------------|   x2
      D|-0--------------0--------------0-------------------------------|
      A|-0--------------0--------------0-------------------------------|
      D|-0-0-0-0-0-0-0--0-0-0-0-0-0-0--0-0-0-0-0-0-0-00000000-5-6-5~---|
      
      P.M   . . . . . .    . . . . . .    . . . . . . ........
      
      
      E|---------------------------------------------------------------|
      B|---------------------------------------------------------------|
      G|---------------------------------------------------------------|
      D|-0--------------0--------------0-------------------------------|
      A|-0--------------0--------------0-------------------------------|
      D|-0-000-000-000--0-000-000-000--0-000-000-000-00000000-5-6-5~---|
      
      P.M   ... ... ...    ... ... ...    ... ... ... ........
      
      
      E|---------------------------------------------------------------|
      B|---------------------------------------------------------------|
      G|---------------------------------------------------------------|
      D|-0--------------0--------------0-------------------------------|
      A|-0--------------0--------------0-------------------------------|
      D|-0-0-0-0-0-0-0--0-0-0-0-0-0-0--0-0-0-0-0-0-0-00000000-5-6-5~---|
      
      P.M  . . . . . .    . . . . . .    . . . . . . ........
      
      
        Pré-Refrão
      
      E|---------------------------------------------------------|
      B|---------------------------------------------------------|
      G|---------------------------------------------------------|
      D|-0-x-7-x-x-2-x-5-x-x-3-x-x--/8---8--8--x-x-3~-3--3-2-2\--| x2
      A|-0-x-5-x-x-3-x-3-x-x-1-x-x--/10--10-10-x-x-3~-3--3-4-4\--|
      D|-0-x---x-x---x---x-x--------/8---8--8--------------------|
      
      
      
        Refrão
      
      E|-------------------------------------------------------------------|
      B|-------------------------------------------------------------------|
      G|-------------------------------------------------------------------|
      D|-3--3-3-3-3--3--3-3-3-3--3--3-3--3--3-3-3-3--3--3-3-3-3--3--3-3-0--|
      A|-3--3-3-3-3--3--3-3-3-3--3--3-3--3--3-3-3-3--3--3-3-3-3--3--3-3-0--|
      D|-3--3-3-3-3--3--3-3-3-3--3--3-3--3--3-3-3-3--3--3-3-3-3--3--3-3-0--|
      
      
      E|------------------------------------------------|
      B|------------------------------------------------|
      G|------------------------------------------------|
      D|-0-0-0-0--0--0-0-0-0--0--0-0--0--0-0-0-0-3/5-5--|
      A|-0-0-0-0--0--0-0-0-0--0--0-0--0--0-0-0-0-3/5-5--|
      D|-0-0-0-0--0--0-0-0-0--0--0-0--0--0-0-0-0-3/5-5--|
      
      
      E|-------------------------------------------------------------------|
      B|-------------------------------------------------------------------|
      G|-------------------------------------------------------------------|
      D|-3--3-3-3-3--3--3-3-3-3--3--3-3--3--3-3-3-3--3--3-3-3-3--3--3-3-0--|
      A|-3--3-3-3-3--3--3-3-3-3--3--3-3--3--3-3-3-3--3--3-3-3-3--3--3-3-0--|
      D|-3--3-3-3-3--3--3-3-3-3--3--3-3--3--3-3-3-3--3--3-3-3-3--3--3-3-0--|
      
      
      E|-----------------------------------------------------------|
      B|-----------------------------------------------------------|
      G|-----------------------------------------------------------|
      D|-0-0-0-0--0--0-0-0-0--0--0-0--0--0-0-0-0-0-----------------|
      A|-0-0-0-0--0--0-0-0-0--0--0-0--0--0-0-0-0-0-----------------|
      D|-0-0-0-0--0--0-0-0-0--0--0-0--0--0-0-0-0-0-00000000-5-6-5~-|
      
      P.M                                          ........
      
      
        Intro pt.2
      
      E|-----------------------------------------------------------------------------|
      B|-----------------------------------------------------------------------------|
      G|-----------------------------------------------------------------------------|
      D|-7\-----------8\6-----6/3-----6/7\-------------------------------------------|
      A|-5\-----------6\4-----4/1-----4/5\-------------------------------------------|
      D|----0-0-0-0-0-----0-0-----0-0------0-0-0-0-0-0--0000--7h8p7h8-0000-8h10p8h10-|
      
      P.M   . . . . .     . .     . .      . . . . . .  ....          ....
      
      
      E|-------------------------------------------------------------------|
      B|-------------------------------------------------------------------|
      G|-------------------------------------------------------------------|
      D|-7\-----------8\6-----6/3-----6/7\---------------------------------|
      A|-5\-----------6\4-----4/1-----4/5\---------------------------------|
      D|----0-0-0-0-0-----0-0-----0-0------0-0-0-0-0-0--00000000--5-6-5~---|
      
      P.M   . . . . .     . .     . .      . . . . . .  ........
      
      
        Solo
      
      E|-----------------------------------------13-16b17~--21p17-----------------------|
      B|--------------------------------------15------------------18--------------------|
      G|--17b19-19~-14---------------------14------------------------19-------13b14r13~-|
      D|---------------17b19-19~--------15------------------------------19--------------|
      A|--------------------------12-17------------------------------------20-----------|
      D|--------------------------------------------------------------------------------|
      
      
      E|-17-18-17-13-------15b17~---------------------------------|
      B|-------------15-----------17-18-17-13-------15b17-16b17~--|
      G|----------------14--------------------14------------------|
      D|-----------------------------------------15---------------|
      A|----------------------------------------------------------|
      D|----------------------------------------------------------|
      
      
      E|-17-13-----------------------------------13-17b18~-17~--|
      B|-------15-----------------------------15----------------|
      G|----------14-15-17-----------------14-------------------|
      D|-------------------15b16~-------15----------------------|
      A|--------------------------12-17-------------------------|
      D|--------------------------------------------------------|
      
      
      E|---------------------------------------------------------------------|
      B|----------------------10/22-22~--------------------------------------|
      G|-7~-2/9\7/14-14~----7--------------------14b15r14-------14b15r14-----|
      D|------------------7-------------------12----------12~-7----------12~-|
      A|---------------------------------------------------------------------|
      D|---------------------------------------------------------------------|
      
      
      E|---------------------18-17-------|
      B|------------------10-------15~---|
      G|-2/9\7/17-17~---7----------------|
      D|--------------7------------------|
      A|---------------------------------|
      D|---------------------------------|
      
      
      E|-18-17-15----------17-13-------20-17-----------------------------------------|
      B|----------18-17-15-------17-15-------20-17-20-18-17-15-----------------------|
      G|-------------------------------------------------------17-15-14--------------|
      D|----------------------------------------------------------------17-15-14-12~-|
      A|-----------------------------------------------------------------------------|
      D|-----------------------------------------------------------------------------|
      
      
      
        Solo - Base
      
      E|--------------------------------------------------------------|
      B|--------------------------------------------------------------|
      G|--------------------------------------------------------------|
      D|-0----------0------------------0----------0-------------------|
      A|-0----------0------------------0----------0-------------------|
      D|-0--0-0-0-0-0--0-0-0-0-0-0-0-0-0--0-0-0-0-0--0-0-0-0-0-0-0-0--|
      
      PM    . . . .    . . . . . . . .    . . . .    . . . . . . . .
      
      
      E|-------------------------------|
      B|-------------------------------|
      G|-------------------------------|
      D|-3-5--6--6-6-6--3-5--6--6-6-6--|
      A|-3-5--6--6-6-6--3-5--6--6-6-6--|
      D|-3-5--6--6-6-6--3-5--6--6-6-6--|
      
      
      E|--------------------------------------------------------------|
      B|--------------------------------------------------------------|
      G|--------------------------------------------------------------|
      D|-0----------0------------------0----------0-------------------|
      A|-0----------0------------------0----------0-------------------|
      D|-0--0-0-0-0-0--0-0-0-0-0-0-0-0-0--0-0-0-0-0--0-0-0-0-0-0-0-0--|
      
      P.M  . . . .    . . . . . . . .    . . . .    . . . . . . . .
      
      
      E|----------------------------|
      B|----------------------------|
      G|----------------------------|
      D|-3-5--6--6-6-6--3-5--6--6~--|
      A|-3-5--6--6-6-6--3-5--6--6~--|
      D|-3-5--6--6-6-6--3-5--6--6~--|
      
      
      E|--------------------|
      B|--------------------|
      G|-7-7-7-7--7-7--7--7-|
      D|-7-7-7-7--7-7--7--7-|
      A|-5-5-5-5--5-5--5--5-|
      D|--------------------|
      
      
      E|--------------------|
      B|--------------------|
      G|-5-5-5-5--5-5--5--5-|
      D|-5-5-5-5--5-5--5--5-|
      A|-3-3-3-3--3-3--3--3-|
      D|--------------------|
      
                                       x2
      
      E|--------------------|
      B|--------------------|
      G|--------------------|
      D|-5-5-5-5--5-5--5--5-|
      A|-5-5-5-5--5-5--5--5-|
      D|-5-5-5-5--5-5--5--5-|
      
      
      E|--------------------|
      B|--------------------|
      G|--------------------|
      D|-3-3-3-3--3-5--5--5-|
      A|-3-3-3-3--3-5--5--5-|
      D|-1-1-1-1--1-3--3--3-|
      
      
      
        Pós-Solo
      
      E|----------------------------------------------------------------------------------------------------|
      B|----------------------------------------------------------------------------------------------------|
      G|----------------------------------------------------------------------------------------------------|
      D|-0--0-0-0-0-0-3--3-3-3-3-3-3--10-10-10-10-10-10-10--7-7-7-7-7-7-7--8-8-8-8-8-8-8--3-3-3-3-3-3-3-3-3-|
      A|-0--0-0-0-0-0-3--3-3-3-3-3-3--10-10-10-10-10-10-10--7-7-7-7-7-7-7--8-8-8-8-8-8-8--3-3-3-3-3-3-3-3-3-|
      D|-0--0-0-0-0-0-3--3-3-3-3-3-3--10-10-10-10-10-10-10--7-7-7-7-7-7-7--8-8-8-8-8-8-8--3-3-3-3-3-3-3-3-3-|
      
      
      E|----------------------------------------------------------------------------------------------------------|
      B|----------------------------------------------------------------------------------------------------------|
      G|----------------------------------------------------------------------------------------------------------|
      D|-10-10-10-10-10-10-10-10-10--7-7-7-7-7-7-7-7-7-7-7-7-7-7-7-7-7-7--8-8-8-8-8-8-8-8-8-8-8-8-8-8-8-8-8-8-10\-|
      A|-10-10-10-10-10-10-10-10-10--7-7-7-7-7-7-7-7-7-7-7-7-7-7-7-7-7-7--8-8-8-8-8-8-8-8-8-8-8-8-8-8-8-8-8-8-10\-|
      D|-10-10-10-10-10-10-10-10-10--7-7-7-7-7-7-7-7-7-7-7-7-7-7-7-7-7-7--8-8-8-8-8-8-8-8-8-8-8-8-8-8-8-8-8-8-10\-|
      
      
      
        Pré-Refrão (Variação)
      
      E|----------------------------------------------------|
      B|----------------------------------------------------|
      G|----------------------------------------------------|
      D|-0-x-7-2-2-x-5-x-3-3-x-x-/8--8--8--x-x-3-3-3-x-4-4\-|
      A|-0-x-5-3-3-x-3-x-1-1-x-x-/10-10-10-x-x-3-3-3-x-2-2\-|
      D|-0-x---------------------/8--8--8-------------------|
      
      
      E|--------------------------------------------------|
      B|--------------------------------------------------|
      G|--------------------------------------------------|
      D|-0-x-7-2-2-x-5-x-3-3-x-x-/8--8--8--x-3-3-3-x-4-4\-|
      A|-0-x-5-3-3-x-3-x-1-1-x-x-/10-10-10-x-3-3-3-x-2-2\-|
      D|-0-x---------------------/8--8--8-----------------|
      
      
      
        Refrão
      
      E|-------------------------------------------------------------------|
      B|-------------------------------------------------------------------|
      G|-------------------------------------------------------------------|
      D|-3--3-3-3-3--3--3-3-3-3--3--3-3--3--3-3-3-3--3--3-3-3-3--3--3-3-0--|
      A|-3--3-3-3-3--3--3-3-3-3--3--3-3--3--3-3-3-3--3--3-3-3-3--3--3-3-0--|
      D|-3--3-3-3-3--3--3-3-3-3--3--3-3--3--3-3-3-3--3--3-3-3-3--3--3-3-0--|
      
      
      E|----------------------------------------------|
      B|----------------------------------------------|
      G|----------------------------------------------|
      D|-0-0-0-0--0--0-0-0-0--0--0-0--0--0-0-0-0-0----|
      A|-0-0-0-0--0--0-0-0-0--0--0-0--0--0-0-0-0-0----|
      D|-0-0-0-0--0--0-0-0-0--0--0-0--0--0-0-0-0-0----|
      
      
      E|-------------------------------------------------------------------|
      B|-------------------------------------------------------------------|
      G|-------------------------------------------------------------------|
      D|-3--3-3-3-3--3--3-3-3-3--3--3-3--3--3-3-3-3--3--3-3-3-3--3--3-3-0--|
      A|-3--3-3-3-3--3--3-3-3-3--3--3-3--3--3-3-3-3--3--3-3-3-3--3--3-3-0--|
      D|-3--3-3-3-3--3--3-3-3-3--3--3-3--3--3-3-3-3--3--3-3-3-3--3--3-3-0--|
      
      
      E|-----------------------------------------------------------|
      B|-----------------------------------------------------------|
      G|-----------------------------------------------------------|
      D|-0-0-0-0--0--0-0-0-0--0--0-0--0--0-0-0-0-0-----------------|
      A|-0-0-0-0--0--0-0-0-0--0--0-0--0--0-0-0-0-0-----------------|
      D|-0-0-0-0--0--0-0-0-0--0--0-0--0--0-0-0-0-0-00000000-5-6-5~-|
      
      P.M                                          ........
      
      
        Final - (Intro pt.2)
      
      E|-----------------------------------------------------------------------------|
      B|-----------------------------------------------------------------------------|
      G|-----------------------------------------------------------------------------|
      D|-7\-----------8\6-----6/3-----6/7\-------------------------------------------|
      A|-5\-----------6\4-----4/1-----4/5\-------------------------------------------|
      D|----0-0-0-0-0-----0-0-----0-0------0-0-0-0-0-0--0000--7h8p7h8-0000-8h10p8h10-|
      
      P.M   . . . . .     . .     . .      . . . . . .  ....          ....
      
      
      E|-------------------------------------------------------------------|
      B|-------------------------------------------------------------------|
      G|-------------------------------------------------------------------|
      D|-7\-----------8\6-----6/3-----6/7\---------------------------------|
      A|-5\-----------6\4-----4/1-----4/5\---------------------------------|
      D|----0-0-0-0-0-----0-0-----0-0------0-0-0-0-0-0--00000000--5-6-5~---|
      
      P.M   . . . . .     . .     . .      . . . . . .  ........
        Composição: Avenged SevenfoldColaboração e revisão:
        • Igor
        • Filth
        • chris_ds
        • Danny

        Comentários 27

        140 .
        • Amanda Amanda: Em 23/07/2014 16:25

          Vamo combinar que essa ai merece Video aula viu...
          Afinal A7x é A7x #Sucesso pow

        • Luciano Dias Luciano Dias: Em 16/07/2014 02:36

          Essa merece video aula ;)

        • joão joão: Em 05/07/2014 15:24

          essa afinaçao ta errada

        • Rafarocks Rafarocks: Em 15/04/2014 16:02

          Vídeo aula por favor!! :D!

        • Felipe Felipe: Em 06/02/2014 19:25

          coloca o vidio aula

        • marcelo.bordinhao.54 marcelo.bordinhao.54: Em 03/01/2014 22:27

          video aula

        • mcpitter.simoes mcpitter.simoes: Em 09/11/2013 21:57

          faze video aula do show das poderosas eles fazem mas dum sucesso desse n

        • kdozo kdozo: Em 15/05/2013 09:07

          Afinacao correta! Db-Ab-Db-Gb-Bb-Eb

        • kauam.alves.3 kauam.alves.3: Em 16/04/2013 11:51

          video aula prv!!!!!!!!!!

        • ironmaiden2 ironmaiden2: Em 10/01/2013 11:40

          Cade a video-aula pra, gustavo lima eles poe mas pra q precisan poe

        140 cancelar

        conseguiu tocar?

        • •••

        covers

        Grave um vídeo tocando Almost Easy e mande pra gente!

        Ex.: http://www.youtube.com/watch?v=0IvSvIwGdwk
        ver covers de outras músicas »
        0:00 / 0:00

        Capítulos

          2 versões de baixo exibições contribuição e correção
          1 versão de bateria exibições contribuição e correção
          2 versões de Guitar Proformatodownloadscontribuição
          play/pausefechar subir/descer velocidade
          6ª corda E5ª corda A4ª corda D3ª corda G2ª corda B1ª corda E
            acordes
            publicidade
            fechar
            ok