Cifra Club

Blinded In Chains

Avenged Sevenfold

Cifra: Principal
exibições 45.578
Tom: E
E|---------------------------------------------|
B|---------------------------------------------|
G|---------------------------------------------|
D|-0000000--0000000--0000----------------------|
A|-0000000--0000000--0000----------------------|
E|-0000000--0000000--0000----------------------|

E|---------------------------------------------------------|
B|------------8-10-11~---13-15-------15-13--------13-13/17~|
G|-7---7---7-------------------15-15-------14-14-----------|
D|---7---7-------------------------------------------------|
A|---------------------------------------------------------|
E|---------------------------------------------------------|

E|--------------------------------18-17-18-17-13~-18-17-18-17-13~-|
B|18-17-18-17-15~-18-17-18-17-15~---------------------------------|
G|----------------------------------------------------------------|
D|----------------------------------------------------------------|
A|----------------------------------------------------------------|
E|----------------------------------------------------------------|

E|15-17-18--------18-17-------17-15------13h15p13-12|
B|---------15-20--------18-13-----------------------|
G|--------------------------------------------------|
D|--------------------------------------------------|
A|--------------------------------------------------|
E|--------------------------------------------------|

E|--------------------------------------------|
B|--------------------------------------------|
G|--------------------------------------------|
D|-00-000-000-06666-00-000-000-04444-00-------|
A|-00-000-000-06666-00-000-000-04444-00-------|
D|-00-000-000-06666-00-000-000-04444-00-------|

E|------------------------|----------|-6/8---8/12-13-10-|
B|-10----10-8-----6/8-6---|-6/8-10-6-|----8-------------|
G|---10-7----9---------7--|----------|-----9------------|
D|------------9-----------|----------|------------------|
A|-------------10---------|----------|------------------|
D|------------------------|----------|------------------|

E|--------------------------------------------|
B|--------------------------------------------|
G|--------------------------------------------|
D|-0000000--0000000--0000---------------------|
A|-0000000--0000000--0000---------------------|
D|-0000000--0000000--0000---------------------|

E|---------------------------------------------|
B|---------------------------------------------|
G|---------------------------------------------|
D|-0000000--0000000--0000-8888888-8888888-8888-|
A|-0000000--0000000--0000-8888888-8888888-8888-|
D|-0000000--0000000--0000-8888888-8888888-8888-|

E|--------------------------------------------|
B|--------------------------------------------|
G|--------------------------------------------|
D|-5555555-5555555-5555-3333333-3333333-3333--|
A|-5555555-5555555-5555-3333333-3333333-3333--|
D|-5555555-5555555-5555-3333333-3333333-3333--|

Solo:
E|-13-12--15/17-15-17-18-17-15/17\12-8-9-8-13\10/18-18-20-18--|
B|------15----------------------------------------------------|
G|------------------------------------------------------------|
D|------------------------------------------------------------|
A|------------------------------------------------------------|
D|------------------------------------------------------------|

E|--17-18-17-15-17-18-17----------------------|
B|--------------------------------------------|
G|--------------------------------------------|
D|--------------------------------------------|
A|--------------------------------------------|
D|--------------------------------------------|

E|--------------------------------------------|
B|--------------------------------------------|
G|-----14-14-13-13---13/14--------------------|
D|-000-15-15-14-14-0-14/15--------------------|
A|-000-------------0--------------------------|
D|-000-------------0--------------------------|
Acordes para:
    Composição: Avenged SevenfoldColaboração e revisão:

    0 comentários

      mostrar mais comentários

      Conseguiu tocar?

      13tocaram0ainda não

      Grave um vídeo tocando Blinded In Chains e mande pra gente!

      00:00 / 00:00
      outros vídeos desta música
      repetirqualidadeautomática
      Outro vídeos desta música
        00:00 / 00:00
        automática
        OK