Cifra Club

Danger Line

Avenged Sevenfold

Cifra: Principal
exibições 36.131
Tom: F
Solo

E|-----------------------------------13--17-b18r17~--15~------|
B|-13b15-----15b17r15b18---15--13~----------------------------|
G|------------------------------------------------------------|
D|------------------------------------------------------------|
A|------------------------------------------------------------|
D|------------------------------------------------------------|

E|-15b17-----15p13----13h15--13h15--13~--------/17--18~------------|
B|-----------------15--------------------------------------15~-----|
G|-----------------------------------------------------------------|
D|-----------------------------------------------------------------|
A|-----------------------------------------------------------------|
D|-----------------------------------------------------------------|

E|-/18---17~-------------13--/17~-------17--h18p17p16-17~-----|
B|---------------13~------------------------------------------|
G|------------------------------------------------------------|
D|------------------------------------------------------------|
A|------------------------------------------------------------|
D|------------------------------------------------------------|

E|-12-13-15---13---12p13h12-----------------------------------|
B|--------------------------15~-----15b17r15b18---15--13~-----|
G|------------------------------------------------------------|
D|------------------------------------------------------------|
A|------------------------------------------------------------|
D|------------------------------------------------------------|

E|-13--17-b18r17---15-17-18--18-18b20---17b18r17~------|
B|-----------------------------------------------------|
G|-----------------------------------------------------|
D|-----------------------------------------------------|
A|-----------------------------------------------------|
D|-----------------------------------------------------|

E|------------------13-18---17---15\-13~--------13-17---15---13-/17~------|
B|-15b17r15~-----15--------------------------13---------------------------|
G|------------------------------------------------------------------------|
D|------------------------------------------------------------------------|
A|------------------------------------------------------------------------|
D|------------------------------------------------------------------------|


Guitar 1
E|-17-18-20-20b22~-----------------17-18-20-21b23~----------------|
B|------------------------------18--------------------------------|
G|----------------------------------------------------------------|
D|----------------------------------------------------------------|
A|----------------------------------------------------------------|
D|----------------------------------------------------------------|
Acordes para:
    Composição: M.shadowsColaboração e revisão:
    • Djonatan Dranka
    • Elton Bezerra
    • vitor dorr

    0 comentários

      mostrar mais comentários

      Conseguiu tocar?

      7tocaram0ainda não

      Grave um vídeo tocando Danger Line e mande pra gente!

      00:00 / 00:00
      outros vídeos desta música
      repetirqualidadeautomática
      Outro vídeos desta música
        00:00 / 00:00
        automática
        OK