Notificações Amigos pendentes

      Aviões do Forró

      Ziriguidum

      45.151 exibições
      Tom: F#
      Intro:
      
      E|-------6666--|
      B|-77776-----4-|
      G|-------------|
      D|-------------|
      A|-------------|
      E|-------------|
      
      
      Ebm         Db          Ebm         Db
      Ziriguidum, ziriguidum, ziriguidum, ziriguidum
      Ebm         Db          Ebm         Db
      Ziriguidum, ziriguidum, ziriguidum, ziriguidum
          Ebm Db     B      Bbm
      Rebolou vem no ziriguidum
          Ebm Db            Ebm
      Rebolou vem no ziriguidum
      
      Balançar…
         Ebm   Db      B     Bbm
      Eu gos...to da nega mulata
         Db    B       Bbm      Abm
      Eu gos...to da nega que samba
                 Ebm
      O pé faz assim,
                    Bbm
      mãozinha pro lado,
                    Db
      Balança o pescoço,
                   Ebm
      pra lá e pra cá…
      Ebm         Db          Ebm         Db
      Ziriguidum, ziriguidum, ziriguidum, ziriguidum
      Ebm         Db          Ebm         Db
      Ziriguidum, ziriguidum, ziriguidum, ziriguidum
      
      Solo:
      
      
      E|----------------------------------------------------------------------|
      B|-------11------11-9-9--12-12-11---------------11----11-9-9------------|
      G|--8--11--11------------------------------8--11--11---------7-7-8------|   (2x)
      D|----------------------------------------------------------------------|
      A|----------------------------------------------------------------------|
      E|----------------------------------------------------------------------|
      
      
      E|-------------11-9-9---------------------------------------------------|
      B|-------11-----------12-12-11------------------11----11-9-9------------|
      G|--8--11--11------------------------------8--11--11---------7-7-8------|    (2x)
      D|----------------------------------------------------------------------|
      A|----------------------------------------------------------------------|
      E|----------------------------------------------------------------------|
      

      Comentários 1

      140 .
      140 cancelar

      conseguiu tocar?

      covers

      Grave um vídeo tocando Ziriguidum e mande pra gente!

      Ex.: http://www.youtube.com/watch?v=0IvSvIwGdwk
      ver covers de outras músicas »
      0:00 / 0:00

      Capítulos

        1 versão de violão dificuldade exibições contribuição e correção
        1 versão de guitarra dificuldade exibições contribuição e correção
        1 versão de cavaco dificuldade exibições contribuição e correção
        1 versão de teclado dificuldade exibições contribuição e correção
        play/pausefechar subir/descer velocidade
        6ª corda E5ª corda A4ª corda D3ª corda G2ª corda B1ª corda E
          acordes
          publicidade
          fechar
          ok