Cifra Club

Black Star

Avril Lavigne

Cifra: Principal
exibições 21.145
Tom: C
Intro:

E|---15--15-----15--12-----15--12-----|
B|----------13---------12---------10--|
G|------------------------------------|
D|------------------------------------|
A|------------------------------------|
E|------------------------------------|


E|--15--12----------------------------|
B|--------------13--15----------------|
G|------------------------------------|
D|----------15------------------------|
A|------------------------------------|
E|------------------------------------|


E|--------15--12------15--12----------|
B|--13-------------12--------10-------|
G|------------------------------------|
D|------------------------------------|
A|------------------------------------|
E|------------------------------------|


E|--15--12----------------------------|
B|--------------13--15--13------------|
G|------------------------------------|
D|----------15------------------------|
A|------------------------------------|
E|------------------------------------|


  C
Black Star
  G
Black Star
Am               F
Forever you will be
     C
A shining star
     G
A shining star
   Am               F
Be whatever you can be
   C
A rock star
   G
Rock Star
Am                F
 You will always be
   C
A Black Star
  G
Black Star
  Am         F
Black Star
  C
Black Star
  G
Black Star
  Am         F
Black Star
Acordes para:
    Composição: Avril LavigneColaboração e revisão:

    0 comentários

      mostrar mais comentários

      Conseguiu tocar?

      30tocaram0ainda não

      Grave um vídeo tocando Black Star e mande pra gente!

      00:00 / 00:00
      outros vídeos desta música
      repetirqualidadeautomática
      Outro vídeos desta música
        00:00 / 00:00
        automática
        OK