Cifra Club

Hot

Avril Lavigne

Cifra: Principal
exibições 136.875
Tom: G#
Intro:
Base: Ab Eb Bbm C# 2X

Solo:
Riff 1
E|-----------------------------8------------       2X
B|--9---9---11---11---9---11--------11------
G|----8---8----8----8---8----8----8----8----
D|------------------------------------------
A|------------------------------------------
E|------------------------------------------

You're so good to me baby baby

Ab            Fm                 Cm         C#
    I want to lock you up in my closet, where no one's around
Ab            Fm                 Cm         C#
    I want to put your hand in my pocket, because you're allowed
Ab            Fm                 Cm         C#
    I want to drive you into the corner, and kiss you without a sound
Ab            Fm                 Cm         C#
    I want to stay this way forever, I'll say it loud
Bbm                  C#
    Now you're in and you can't get out

REFRÃO:
               Eb Eb
You make me so hot
               Bbm Bbm
Make me wanna drop
               C# C#
You're so ridiculous
               Ab5 Ab
I can barely stop
               Eb Eb
I can hardly breathe
               Bbm Bbm
You make me wanna scream
               C# C#
You're so fabulous
                  (Ab Eb Bbm) Riff 1
You're so good to me Baby Baby
        C#       (Ab Eb Bbm) Riff 1
You're so good to me Baby Baby

Verso:
Riff 2
E|----------------------------------------------------------------       2X
B|-13-13-13-11---13-13-13-11-11---13-13-13-11---13-13-13-14-14----
G|----------------------------------------------------------------
D|----------------------------------------------------------------
A|----------------------------------------------------------------
E|----------------------------------------------------------------

Ab            Fm                 Cm         C#
    I can make you feel all better, just take it in
Ab            Fm                 Cm         C#
    And I can show you all the places, you've never been
Ab            Fm                 Cm         C#
    And I can make you say everything, that you never said
Ab            Fm                 Cm         C#
    And I will let you do anything, again and again
Bbm                  C#
    Now you're in and you can't get out

REFRÃO:
                Eb Eb
You make me so hot
               Bbm Bbm
Make me wanna drop
               C# C#
You're so ridiculous
               Ab5 Ab
I can barely stop
               Eb Eb
I can hardly breathe
               Bbm Bbm
You make me wanna scream
               C# C#
You're so fabulous
                  (Ab Eb Bbm) Riff 1
You're so good to me Baby Baby
        C#       (Ab Eb Bbm) Riff 1
You're so good to me Baby Baby

Riff 3
E|---------------------------------------
B|---------------------------------------  2X
G|-------------6------------8------------
D|------8----6-------6----8--------------
A|----8----4-------6----6----------------
E|--6------------4-----------------------

Kiss me gently

Always I know

Hold me love me
          (Ab Eb Bbm C#)
Don't ever go

REFRÃO:
                Eb Eb
You make me so hot
               Bbm Bbm
Make me wanna drop
               C# C#
You're so ridiculous
               Ab5 Ab
I can barely stop
               Eb Eb
I can hardly breathe
               Bbm Bbm
You make me wanna scream
               C# C#
You're so fabulous
                  (Ab Eb Bbm) Riff 1
You're so good to me Baby Baby
        C#       (Ab Eb Bbm) Riff 1
You're so good to me Baby Baby
         C#
You're so good
Acordes para:
    Composição: Avril Lavigne / Evan TaubenfeldColaboração e revisão:

    0 comentários

      mostrar mais comentários

      Conseguiu tocar?

      19tocaram0ainda não

      Grave um vídeo tocando Hot e mande pra gente!

      00:00 / 00:00
      outros vídeos desta música
      repetirqualidadeautomática
      Outro vídeos desta música
        00:00 / 00:00
        automática
        OK