Enviar cifraEntrar

Innocence

Avril Lavigne

Cifra: Principal
exibições 221.273
Tom: E
Intro 2x:

E|------------------------|---------------------------||
B|------4--5--4--0--4--5--|--------4--5--4--0--2------||
G|------------------------|---------------------------||  (2x)
D|------------------------|---------------------------||
A|-4----------------------|--0------------------------||
E|------------------------|---------------------------||


C#m                A
Waking up I see that everything is ok
C#m                   A
The first time in my life and now it's so great
C#m                   A
Slowing down I look around and I am so amazed
C#m                 A                           B
I think about the little things that make life great
                  A
I wouldn't change a thing about it
B                   A
This is the best feeling

Refrão:
C#m          A            E       B
  This innocence is brilliant, I hope that it will stay
C#m          A       E       B
  This moment is perfect, please don't go away
C#m  A        E   B
  I need you now
             A             B
  And I'll hold on to it, don't you let it pass you by

E|------------------------|---------------------------||
B|------4--5--4--0--4--5--|--------4--5--4--0--2------||
G|------------------------|---------------------------||  (2x)
D|------------------------|---------------------------||
A|-4----------------------|--0------------------------||
E|------------------------|---------------------------||


C#m                  A
I found a place so safe, not a single tear
C#m                   A
The first time in my life and now it's so clear
C#m           A
Feel calm I belong, I'm so happy here
C#m                 A                     B
It's so strong and now I let myself be sincere
                  A
I wouldn't change a thing about it
B                   A
This is the best feeling

(refrão)
C#m          A            E       B
  This innocence is brilliant, I hope that it will stay
C#m          A       E       B
  This moment is perfect, please don't go away
C#m  A        E   B
  I need you now
             A             B
  And I'll hold on to it, don't you let it pass you by

A                            E
It's the state of bliss you think you're dreaming
B                  C#m
It's the happiness inside that you're feeling
A                     E             B   C#m
It's so beautiful it makes you wanna cry
A                            E
It's the state of bliss you think you're dreaming
B                  C#m
It's the happiness inside that you're feeling
A                     E             B   C#m
It's so beautiful it makes you wanna cry

It's so beautiful it makes you want to cry

(refrão 2x)
C#m          A            E       B
  This innocence is brilliant, I hope that it will stay
C#m          A       E       B
  This moment is perfect, please don't go away
C#m  A        E   B
  I need you now
             A             B
  And I'll hold on to it, don't you let it pass you by.

E|------------------------|---------------------------||
B|------4--5--4--0--4--5--|--------4--5--4--0--2------||
G|------------------------|---------------------------||
D|------------------------|---------------------------||
A|-4----------------------|--0------------------------||
E|------------------------|---------------------------|| (2x)


( A7+ )
  • 1
  • 2
  • 3
  • 4
  • 5
  • 6
  • 7
  • 8
  • 9
  • 10
  • 11
  • 12
    Acordes para:
      Composição: Avril Lavigne / Evan TaubenfeldColaboração e revisão:
      • fraancih
      • Renan
      • mahcastro

      0 comentários

        mostrar mais comentários

        Conseguiu tocar?

        70tocaram0ainda não

        Grave um vídeo tocando Innocence e mande pra gente!

        00:00 / 00:00
        outros vídeos desta música
        repetirqualidadeautomática
        • automática
        Outro vídeos desta música
          00:00 / 00:00
          automática
          • automática
          Acordes para:violão e guitarra
          dificuldadeexibiçõescontribuições
          4 versões de Guitar Proformatodownloadscontribuição
          2 versões de Partiturasformatodownloadscontribuição
          fecharplay/pause subir/descer velocidade
            acordes
            fechar
            OK
            Feedback