Cifra Club

Play Ground

Ayreon

Cifra: Principal (violão e guitarra)
Selo Cifra Club: esta cifra foi revisada para atender aos critérios oficiais da nossa Equipe de Qualidade.
tom: E
Riff A
E|------------------------------------------------|
B|------------------7---7-------------------7-----|
G|--6-------6-9-6-9---6---9-6-------6-9-6-9---6---|
D|----9-7-9-------------------9-7-9---------------|
A|------------------------------------------------|
E|------------------------------------------------|

Riff B
E|------------------------------------------------|
B|------------------7---7-9---9-10-9-7------------|
G|--6-------6-9-6-9---6-----6----------9-----6----|
D|----9-7-9------------------------------7-9------|
A|------------------------------------------------|
E|------------------------------------------------|

Riff C
E|------------------------------------------------|
B|------------------7---7-9---9-10-9-7------------|
G|--6-------6-9-6-9---6-----6----------9----------|
D|----9-7-9------------------------------7-9------|
A|------------------------------------------------|
E|------------------------------------------------|

Riff D
E|--------------------------------------------------------------------------|
B|--------------------------11----11----------------------------11----------|
G|--10----------10-13-10-13----10----13-10----------10-13-10-13----10-10----|
D|-----13-11-13----------------------------13-10-13----------------------13-|
A|--------------------------------------------------------------------------|
E|--------------------------------------------------------------------------|

Riff E
E|--------------------------------------------------------------|
B|--------------------11----11-13----13-14-13-11----------------|
G|--------10-13-10-13----10-------10-------------13-------10----|
D|--11-13-------------------------------------------11-13-------|
A|--------------------------------------------------------------|
E|--------------------------------------------------------------|

E|---------------------------|
B|---------------------------|
G|---------------------------|
D|--13-11-10-------10--------|
A|-----------11-13-----------|
E|---------------------------|

Riff F
E|-------------------------------------------------------------------------|
B|-------------------------15----15----------------------------15----------|
G|-14----------14-17-14-17----14----17-14----------14-17-14-17----14-14----|
D|----17-15-17----------------------------17-14-17----------------------17-|
A|-------------------------------------------------------------------------|
E|-------------------------------------------------------------------------|

Riff E
E|--------------------------------------------------------------|
B|--------------------15----15-17----17-18-17-15----------------|
G|--------14-17-14-17----14-------14-------------17-------14----|
D|--15-17-------------------------------------------15-17-------|
A|--------------------------------------------------------------|
E|--------------------------------------------------------------|

E|---------------------------|
B|---------------------------|
G|---------------------------|
D|--17-15-14-------14--------|
A|-----------15-17-----------|
E|---------------------------|

Order:
Riff A+B during flute and violins
Riff A+C at last part of violins
Riff D during Guitar
Riff E+F during final Guitar
Outros vídeos desta música
    1 exibições
      • ½ Tom
      • A
      • Bb
      • B
      • C
      • Db
      • D
      • Eb
      • E
      • F
      • F#
      • G
      • Ab
    • Adicionar à lista

    Afinação da cifra

    Afinador online

      0 comentários

      Ver todos os comentários

      Entre para o Cifra Club PRO

      Tenha acesso a benefícios exclusivos no App e no Site

      • Chega de anúncios

      • Badges exclusivas

      • Mais recursos no app do Afinador

      • Atendimento Prioritário

      • Aumente seu limite de lista

      • Ajude a produzir mais conteúdo

      Cifra Club Pro

      Aproveite o Cifra Club com benefícios exclusivos e sem anúncios
      Cifra Club Pro
      Aproveite o Cifra Club com benefícios exclusivos e sem anúncios
      Ops (: Contenido disponible sólo en portugués.
      OK