Cifra Club

Heart

Bad Bunny

Cifra: Principal (violão e guitarra)
Selo Cifra Club: esta cifra foi revisada para atender aos critérios oficiais da nossa Equipe de Qualidade.
tom: Db
E|--x--------x--------x--------x---------------------------------------------|
B|--11-------9--------14-------x---------------------------------------------|
G|--10-------10-------13-------10--------------------------------------------|
D|--11-------11-------15-------11--------------------------------------------|
A|--9--------9--------13-------11--------------------------------------------|
E|--x--------x--------x--------9---------------------------------------------|

[Intro]

E|---------------------x--|--------------------x--|---------------------x--|----------------------|
B|---------11------>---9--|--------11------>---9--|---------11------>---9--|---------------14-----|
G|---------10------>-10---|--------10------>-10---|---------10------>-10---|---------------13-----|
D|-----11---------->11----|----11---------->11----|-----11---------->11----|-----------15---------|
A|--9-----------9---------|-9-----------9---------|--9-----------9---------|--8/13-13----------13-|
E|------------------------|-----------------------|------------------------|----------------------|

E|------------------------|
B|------------------------|
G|----------10------------|
D|-------11----11---------|
A|-->11-------------------|
E|-->9--------------------|

[Verse/loop] 

E|---------------------x--|------------------------9---|---------------------x--|----------------------|
B|---------11------>---9--|--------11------>---9----9--|---------11------>---9--|---------------14-----|
G|---------10------>-10---|--------10------>-10--------|---------10------>-10---|---------------13-----|
D|-----11---------->11----|----11---------->11---------|-----11---------->11----|-----------15---------| x10
A|--9-----------9---------|-9-----------9--------------|--9-----------9---------|--8/13-13----------13-|
E|------------------------|----------------------------|------------------------|----------------------|


[Outro] 

E|---------------------x--|------------------------9---|---------------------x--|----------------------|
B|---------11------>---9--|--------11------>---9----9--|---------11------>---9--|---------------14-----|
G|---------10------>-10---|--------10------>-10--------|---------10------>-10---|---------------13-----|
D|-----11---------->11----|----11---------->11---------|-----11---------->11----|-----------15---------|
A|--9-----------9---------|-9-----------9--------------|--9-----------9---------|--8/13-13----------13-|
E|------------------------|----------------------------|------------------------|----------------------|

E|------------------------|
B|------------------------|
G|----------10------------|
D|-------11----11---------|
A|-->11-------------------|
E|-->9--------------------|

************************************

| x   Dead note
| /   Slide up
| >   Strum down & ring out  
00:00 / 00:00
Outros vídeos desta música
Repetir
Outros vídeos desta música
14 exibições
    • ½ Tom
    • A
    • Bb
    • B
    • C
    • Db
    • D
    • Eb
    • E
    • F
    • F#
    • G
    • Ab
  • Adicionar à lista

Afinação da cifra

Afinador online

    0 comentários

    Ver todos os comentários

    Entre para o Cifra Club PRO

    Tenha acesso a benefícios exclusivos no App e no Site

    • Chega de anúncios

    • Mais recursos no app do Afinador

    • Atendimento Prioritário

    • Aumente seu limite de lista

    • Ajude a produzir mais conteúdo

    00:00 / 00:00

    Cifra Club Pro

    Aproveite o Cifra Club com benefícios exclusivos e sem anúncios
    Cifra Club Pro
    Aproveite o Cifra Club com benefícios exclusivos e sem anúncios
    OK