Cifra Club

Un Coco

Bad Bunny

Cifra: Principal (violão e guitarra)
Selo Cifra Club: esta cifra foi revisada para atender aos critérios oficiais da nossa Equipe de Qualidade.
tom: E
E|------------------------------------------------------------------------------------------|
B|----9---9---9---9--------7---7---7---7--------4---4---4---4--------5---5---5---5----------|
G|----8---8---8---8--------8---8---8---8--------4---4---4---4--------6---6---6---5----------|
D|----9---9---9---9--------8---8---8---8--------6---6---6---6--------6---6---6---6----------|
A|--7---7---7---7---7----6---6---6---6---6-------------------------4---4---4---4---4--------|
E|--------------------------------------------4---4---4---4---4-----------------------------|

[R1]= start playing riff 1
[R1end] Stop playing riff 1


       
[Intro]
                                                      
Ante' que este Phillie se apague, yo te voy olvidar-dar
                       
Yo te voy a olvidar-dar
                                                           
Ante' que este Phillie se apague, yo te voy olvidar-dar-dar
                        
Yo te voy a olvidar, yal

E|------------------------------------------------------------------------------------------|
B|----9---9---9---9--------7---7---7---7--------4---4---4---4--------5---5---5---5----------|
G|----8---8---8---8--------8---8---8---8--------4---4---4---4--------6---6---6---5----------|
D|----9---9---9---9--------8---8---8---8--------6---6---6---6--------6---6---6---6----------| x3
A|--7---7---7---7---7----6---6---6---6---6-------------------------4---4---4---4---4--------|
E|--------------------------------------------4---4---4---4---4-----------------------------|
         
[Verso 1]
         
E|------------------------------------------------------------------------------------------|
B|----9---9---9---9--------7---7---7---7--------4---4---4---4--------5---5---5---5----------|
G|----8---8---8---8--------8---8---8---8--------4---4---4---4--------6---6---6---5----------| x2
D|----9---9---9---9--------8---8---8---8--------6---6---6---6--------6---6---6---6----------|
A|--7---7---7---7---7----6---6---6---6---6-------------------------4---4---4---4---4--------|
E|--------------------------------------------4---4---4---4---4-----------------------------|
                        
Me paso fumando bajo las palmera'
                                                              
A ver si me cae un coco en la cabeza y me borra mi vida entera
                                            
Veo parejitas dándose beso' y me da dentera
                                                   [R1end]    
Vo'a tirar el radio pa'l mar si sale Sin Bandera porque
                                            
No puedo escuchar cancione' dе romance (Du)
                                            
Y me cansé que dе pensar en ti no me canse
                                              
El último pétalo me dijo que aún hay chance
                                                 
No sé si e' verdad, pero si va' a volver, avance
                                                       
Por favor, aunque sea un mensaje ante' que salga el sol
                                               
Que en la mañana coja alergia buscando tu olor
                                                  
Tantos trofeo' y aún me siento perdedor, perdedor
                          
Búscame el encendedor, ey
                                           
Que si no te olvido me vo'a mudar pa' Chile
                               
Pa' Argentina o pa' El Salvador
                                                  
"Pero demen el lighter" dije, por favor, por favor

      
[Chorus]

E|------------------------------------------------------------------------------------------|
B|----9---9---9---9--------7---7---7---7--------4---4---4---4--------5---5---5---5----------|
G|----8---8---8---8--------8---8---8---8--------4---4---4---4--------6---6---6---5----------|
D|----9---9---9---9--------8---8---8---8--------6---6---6---6--------6---6---6---6----------| x1
A|--7---7---7---7---7----6---6---6---6---6-------------------------4---4---4---4---4--------|
E|--------------------------------------------4---4---4---4---4-----------------------------|

[R1]                                                         
Y ante' que este Phillie se apague, yo te voy olvidar-dar
                           
Ey, yo te voy a olvidar-dar
                                                            
Ante' que este Phillie se apague, yo te voy olvidar-dar (Ey)
                        
Yo te voy a olvidar, yal

         
[Verse 2]

E|------------------------------------------------------------------------------------------|
B|----9---9---9---9--------7---7---7---7--------4---4---4---4--------5---5---5---5----------|
G|----8---8---8---8--------8---8---8---8--------4---4---4---4--------6---6---6---5----------|
D|----9---9---9---9--------8---8---8---8--------6---6---6---6--------6---6---6---6----------| x2
A|--7---7---7---7---7----6---6---6---6---6-------------------------4---4---4---4---4--------|
E|--------------------------------------------4---4---4---4---4-----------------------------|

[R1]          
Ey, ey, ey
                                                
Me estoy ahogando y a la' ola' le' pedí socorro
                                                 
Escribo tu nombre en la arena a ver si así lo borro
                                             
Pero tus labio' y tus ojo' los tengo de gorro
                    [R1end]     
No sale' de mi cabeza (Du)
                           
Otro Phillie y otra cerveza
                      
Ya tu recuerdo me pesa
                                     
Te disfrazaste de Rubí y eras Teresa
                                           
Pero soy un pendejo y todavía me interesa'
   [R1]                         
Ey, ey, saber de tu paradero
                              
Y preguntarte si fue verdadero
                                                      
O si está' volá' como avión y yo fui pasajero (Wuh)
                             [R1end]      
Qué cojones, todavía yo te quiero
                                                     
Jeh, jeh, lo' muchacho' dicen que yo estoy charriando
                                                    
Jeh, jeh, ey, pero en bajita seguimo' quemando (Rra)

      
[Chorus]

E|------------------------------------------------------------------------------------------|
B|----9---9---9---9--------7---7---7---7--------4---4---4---4--------5---5---5---5----------|
G|----8---8---8---8--------8---8---8---8--------4---4---4---4--------6---6---6---5----------|
D|----9---9---9---9--------8---8---8---8--------6---6---6---6--------6---6---6---6----------| x1
A|--7---7---7---7---7----6---6---6---6---6-------------------------4---4---4---4---4--------|
E|--------------------------------------------4---4---4---4---4-----------------------------|

 [R1]                                                             
Y ante' que este Phillie se apague, yo te voy olvidar-dar (Eh)
                       
Yo te voy a olvidar-dar
                                                       
Ante' que este Phillie se apague, yo te voy olvidar-dar
              [R1end]          
Yo te voy a olvidar, yal
                                                         
Outros vídeos desta música
    1.829 exibições
      • ½ Tom
      • A
      • Bb
      • B
      • C
      • Db
      • D
      • Eb
      • E
      • F
      • F#
      • G
      • Ab
    • Adicionar à lista

    Afinação da cifra

    Afinador online

      0 comentários

      Ver todos os comentários

      Entre para o Cifra Club PRO

      Tenha acesso a benefícios exclusivos no App e no Site

      • Chega de anúncios

      • Mais recursos no app do Afinador

      • Atendimento Prioritário

      • Aumente seu limite de lista

      • Ajude a produzir mais conteúdo

      Cifra Club Pro

      Aproveite o Cifra Club com benefícios exclusivos e sem anúncios
      Cifra Club Pro
      Aproveite o Cifra Club com benefícios exclusivos e sem anúncios
      OK