Cifra Club

You

Bad Religion

Tab de baixo: Completa
[Intro]

   ^ ^ ^ ^ ^ ^ ^ ^
G|------------------|
D|-------0-2-0------|x4
A|-0-2-3-------3-2--|
E|------------------|

[Primeira Parte]

G|------------------------------------------------------------------|
D|------------------------------------------------------------------|
A|-0-00-00-0-00-00-----------------3-33-33-3-33-33------------------|
E|-----------------1-11-11-1-11-11-----------------3-33-33-3-33-33--|

G|------------------------------------------------------------------|
D|------------------------------------------------------------------|
A|-0-00-00-0-00-00-----------------3-33-33-3-33-33-5-55-55-7-77-77--|
E|-----------------1-11-11-1-11-11----------------------------------|
                                                           ^ ^ ^ ^
G|------------------------------------------------------------------|
D|------------------------------------------------------------------|
A|-0-00-00-0-00-00-----------------3-33-33-3-33-33-----------2-3-5--|
E|-----------------1-11-11-1-11-11-----------------3-33-33-3--------|

G|------------------------------------------------------------------|
D|------------------------------------------------------------------|
A|-0-00-00-0-00-00-----------------3-33-33-3-33-33-5-55-55-7-77-77--|
E|-----------------1-11-11-1-11-11----------------------------------|

G|------------------------------------------------------------------|
D|------------------------------------------------------------------|
A|-8-88-88-8-88-88-7-77-77-7-77-77-8-88-88-8-88-88-7-7-8-8-10--8----|
E|------------------------------------------------------------------|

[Refrão]

G|------------------------------------------------------------------|
D|------------------------------------------------------------------|
A|-0-00-00-----------------0-00-00-0-00-00---------3-33-33\7-77-77--|
E|---------1-11-11-3-33-33-----------------1-11-11------------------|

G|------------------------------------------------------------------------------|
D|------------------------------------------------------------------------------|
A|-0-00-00-------------------------0-00-00--------------------------------------|
E|---------1-11-11-3-33-33-3-33-33---------1-11-11-0-00-00-0-00-00-0-00-00-1-0--|

[Segunda Parte]

   ^ ^ ^ ^ ^ ^ ^ ^
G|------------------|
D|-------0-2-0------|x4
A|-0-2-3-------3-2--|
E|------------------|
                                                           ^ ^ ^ ^
G|------------------------------------------------------------------|
D|------------------------------------------------------------------|
A|-0-00-00-0-00-00-----------------3-33-33-3-33-33-----------2-3-5--|
E|-----------------1-11-11-1-11-11-----------------3-33-33-3--------|

G|------------------------------------------------------------------|
D|------------------------------------------------------------------|
A|-0-00-00-0-00-00-----------------3-33-33-3-33-33-5-55-55-7-77-77--|
E|-----------------1-11-11-1-11-11----------------------------------|
                                                           ^ ^ ^ ^
G|------------------------------------------------------------------|
D|-------------------------------------------------5-55-55-5-3------|
A|-0-00-00-0-00-00-----------------3-33-33-3-33-33-------------5-3--|
E|-----------------1-11-11-1-11-11----------------------------------|

G|------------------------------------------------------------------|
D|------------------------------------------------------------------|
A|-0-00-00-0-00-00-----------------3-33-33-3-33-33-5-55-55-7-77-77--|
E|-----------------1-11-11-1-11-11----------------------------------|

G|------------------------------------------------------------------|
D|------------------------------------------------------------------|
A|-8-88-88-8-88-88-7-77-77-7-77-77-8-88-88-8-88-88-7-7-8-8-10--8----|
E|------------------------------------------------------------------|

G|------------------------------------------------------------------|
D|------------------------------------------------------------------|
A|-0-00-00-----------------0-00-00-0-00-00---------3-33-33\7-77-77--|
E|---------1-11-11-3-33-33-----------------1-11-11------------------|

G|------------------------------------------------------------------------------|
D|------------------------------------------------------------------------------|
A|-0-00-00-------------------------0-00-00--------------------------------------|
E|---------1-11-11-3-33-33-3-33-33---------1-11-11-0-00-00-0-00-00-0-00-00-1-0--|

[Final]

                           ^  ^                          ^  ^
G|-------------------------------------------------------------|
D|-------------------------------------------------------------|
A|-0-00-00-----------------3--3--0-00-00-----------------3--2--|
E|---------1-11-11-3-33-33---------------1-11-11-3-33-33-------|

                           ^  ^                                     ^  ^  ^  ^
G|--------------------------------------------------------------------------------|
D|--------------------------------------------------------------------------------|
A|-0-00-00-----------------3--3--0-00-00------------------------------------------|
E|---------1-11-11-3-33-33---------------1-11-11-0-00-00-0-00-00-0--1--3--1--0\5--|
Composição de Brett Gurewitz / Greg Graffin
Colaboração e revisão:
  • Bruno Tsuna
3 exibições

0 comentários

Ver todos os comentários

Conseguiu tocar?

0 Tocaram 0 Ainda não

Grave um vídeo tocando You e nos envie!

00:00 / 00:00
Outros vídeos desta música
Repetir Qualidade Automático
Outros vídeos desta música
00:00 / 00:00
Automático

Cifra Club Pro

Aproveite o Cifra Club com benefícios exclusivos e sem anúncios
Cifra Club Pro
Aproveite o Cifra Club com benefícios exclusivos e sem anúncios
OK