Cifra Club

Black Friday Cifra Club

Lucro (Descomprimindo)

BaianaSystem

Cifra: Principal (violão e guitarra)
tom: F
[Intro]

E|-------------------------------------------------|
B|-------------------------------------------------|
G|-------------------------------------------------|
D|----------7----------5----------7---7h8-7-5------|
A|-5---5-8----------7----5---5-8--------------8-7--|
E|--------------8-8--------------------------------|

[Guitarra]

E|-------------------------------------------------|
B|----------15-14-13-------------------------------|
G|----------------------12-15-14-12----------------|
D|----12-15----------14-------------15-14-15-12----|
A|-12----------------------------------------------|
E|-------------------------------------------------|
                                                   
E|-------------------------------------------------|
B|----------15-14-13-------------------------------|
G|----------------------12-15-14-12----------------|
D|----12-15----------14-------------15-14--12------|
A|-12----------------------------------------------|
E|-------------------------------------------------|
                                                   
E|-------------------------------------------------|
B|----------15-14-13-------------------------------|
G|----------------------12-15-14-12----------------|
D|----12-15----------14-------------15-14-15-12----|
A|-12----------------------------------------------|
E|-------------------------------------------------|
                                                   
E|-------------------------------------------------|
B|-------------------------------------------------|
G|-----------15-14-12------------------------------|
D|----12-15-----------15-14-12-11-12-14-15-12------|
A|-12----------------------------------------------|
E|-------------------------------------------------|

E|-------------------------------------------------|
B|-------------------------------------------------|
G|-------------------------------------------------|
D|--3--5--7--------5--3--------------3--5---7------|
A|-----------------------5-------------------------|
E|-------------------------------------------------|

[Solo Refrão]

E|--10----10-8---8-10----10-8-12-15----------------|
B|-----10------8------10---------------------------|
G|-------------------------------------------------|
D|-------------------------------------------------|
A|-------------------------------------------------|
E|-------------------------------------------------|

E|--10-10-10-10-8--5h8p5---5-----------------------|
B|-----------------------8---6---------------------|
G|-----------------------------7-------------------|
D|-------------------------------------------------|
A|-------------------------------------------------|
E|-------------------------------------------------|

Dm             C             Dm
Tire as construções da minha praia
       C            Dm
Não consigo respirar
       C               Dm
As meninas de mini saia
       C              Dm
Não conseguem respirar
        C           Dm
Especulação imobiliária
       C                Dm
E o petróleo em alto mar
        C               Dm
Subiu o prédio eu ouço vaia

         Dm                          F
Eu faço figa pra essa vida tão sofrida
                 G
Terminar bem sucedida
                    A
Luz do sol é minha amiga
                     Dm
Luz da lua me instiga
                 F
Me diga você, me diga 
                         G
O que é que sara a tua ferida
                A
Me diga você, me diga

Dm  C  Dm
Lucro
C            Dm  C  Dm
Máquina de louco 
  C               Dm  C  Dm
você pra mim é lucro
C              Dm  C  Dm  C
Máquina de louco

Dm                        C
Vou botar rapadura na mamadeira
                       Dm 
Vou dar rapadura pra bater, pá pá
        C
É pra bater, pá pá
00:00 / 00:00
Outros vídeos desta música
Repetir
Outros vídeos desta música
Compositor não encontrado.
Colaboração e revisão:
25.642 exibições
    • ½ Tom
    • A
    • Bb
    • B
    • C
    • Db
    • D
    • Eb
    • E
    • F
    • F#
    • G
    • Ab
  • Adicionar à lista

    0 comentários

    Ver todos os comentários

    Conseguiu tocar?

    4 Tocaram 1 Ainda não

    Grave um vídeo tocando Lucro (Descomprimindo) e nos envie!

    Entre para oCifra Club PRO

    Tenha acesso a benefícios exclusivos no App e no Site

    • Chega de anúncios

    • Prioridade de compra em lançamentos

    • Mais recursos no app do Afinador

    • Atendimento Prioritário

    • Descontos nos produtos Cifra Club

    • Ajude a produzir mais conteúdo

    00:00 / 00:00

    Cifra Club Pro

    Aproveite o Cifra Club com benefícios exclusivos e sem anúncios
    Cifra Club Pro
    Aproveite o Cifra Club com benefícios exclusivos e sem anúncios
    OK