Cifra Club

Aprenda

Casa

Baleia

Cifra: Principal (violão e guitarra)
tom: C
Intro: C5
(C    Dm  Am ) (x4)

E|-12-12-12--12-10-15--12-12-12--10----15h17-15-12--10-10-10-----12-10------------------------|
B|----------------------------------13------------------------13--------13-10-10-----10-13-10-| (4x)
G|--------------------------------------------------------------------------------12----------| 
D|--------------------------------------------------------------------------------------------|


(C    F    C )

E|--------------|---------------|--------------12-17-15--12-10-8-|-10-12----8----10-12-10-8-----8----------|
B|--------------|---------------|--------13-15-------------------|-------10-----------------10----10-8---8-| (2x)
G|-12-14-----12-|--12-14-----12-|-12--14-------------------------|-------------------------------------9---|
D|-------14-----|--------14-----|--------------------------------|-----------------------------------------|

(na segunda vez há o riff acima acompanhado de uma guitarra uma oitava abaixo)

(C    F    Am )

E|--------------|---------------|-------------------------------|----------------------------------------|
B|--------------|---------------|-------------------------------|----------------------------------------|
G|--------------|---------------|--------------9-14-12--9-7-----|-7-9---------7-9-7----------------------|
D|--------------|---------------|--------10-12--------------10--|-----7-10----------10-7--10-------------|
A|-10-12-----10-|--10-12-----10-|-10--12------------------------|----------------------------12-10----10-|
E|-------12-----|--------12-----|-------------------------------|----------------------------------12----|


(F     C )
(F     Gbm7(b5) F )

C
Minha casa é simples
Mas é forte todavia
Dm
Chove todo dia
Am
Uma calma solidão

C
Vento que arranca
Dos varais uma lembrança
Dm
Tudo que me alcança
Am
Era sonho, agora, não

C
Da janela, vejo
Luzes da cidade, o peso
Dm
Todo o desejo
Am
De um lugar nesse clarão

C
Como eles correm
Tão certinhos quanto à sorte
Dm
Rima com a morte
Am                         C
Mando um grito, mando um sinal

(C   F   C )
(C   F   Am )

F
Ninguém nunca vê a minha casa
C                    F  Gbm7(b5)
Ninguém nunca entra


C
Minha casa é simples
Mas é minha toda vida
Dm               Am
Chove todo dia - uma brava solidez

C
Onda que me lança
Nunca quebra, só avança
Dm
Faz da dor bonança
Am
Soa o sino - agora, sim

C
Sei que já é tarde
                        Dm
Hoje desço pra cidade - algo que se parte
Am
Dou à sorte o meu amor

   C
Em cima de um morro nem tão alto, nem tão baixo
Dm
Será que eu encaixo?
Am
Era sonho
Agora, não
Colaboração e revisão:
  • Igor
  • Felipe
6.577 exibições
    • ½ Tom
    • A
    • Bb
    • B
    • C
    • Db
    • D
    • Eb
    • E
    • F
    • F#
    • G
    • Ab
  • Adicionar à lista

    0 comentários

    Ver todos os comentários

    Conseguiu tocar?

    4 Tocaram 0 Ainda não

    Grave um vídeo tocando Casa e nos envie!

    00:00 / 00:00
    outros vídeos desta música
    repetir qualidade Automático
    Outros vídeos desta música
    00:00 / 00:00
    Automático

    Cifra Club Pro

    Aproveite o Cifra Club com benefícios exclusivos e sem anúncios
    Cifra Club Pro
    Aproveite o Cifra Club com benefícios exclusivos e sem anúncios
    OK