Cifra Club

Salto

Baleia

Cifra: Principal (violão e guitarra)
tom: D
Riff:
E|-------------------------------------
B|-------------------------------------
G|----------------0--0------2--4--2----
D|------0----4---------4---------------
A|-------------------------------------
E|---3----3----3----------3------------

G
De mim a você vive um monstro infeliz
O seu delírio é sussurrar
Diz palavras glaciais
Elas vêm ancorar a distância entre nós dois

A7    Em
Daqui a aí
A7      Em
um triz de abismo
A7       Em    C
nos quer engolir

G
Até o monstro se cansar, vai berrar os fins do mundo
As más-certezas emprestadas.
E tudo em volta vai ruir
Mas se a gente não fugir, ele vai se dissolver
Em um verso que dirá:

A7    Em
Daqui a aí
A7    Em
não há perigo
A7  Em  C
É só ruído

G  Em

 na 6ª corda indo pro Em:
E|---2-3--5--2--0-----

F#m
Faz um rasgo em mim
           D
tira o coração
           F#m
Joga, no lugar, o verso
D         Bm
Vamos declamá-lo
              A
E dizer outra vez
              Em
O quanto precisar até
               D
Ser o corpo em si

Guitarra:
E|------------------------------------------------------------
B|------------------------------------------------------------
G|---7--9s---4--3--4--7s--6s--4-------------------------------
D|-------------------------------4s--2s--4---9s--4s--9s--4----
A|------------------------------------------------------------
E|------------------------------------------------------------
[s = slide]
                                  G
De mim a você, o terror de ser feliz
00:00 / 00:00
Outros vídeos desta música
Repetir
Outros vídeos desta música
Composição de Baleia
Colaboração e revisão:
  • Luiz Fonseca
576 exibições
    • ½ Tom
    • A
    • Bb
    • B
    • C
    • Db
    • D
    • Eb
    • E
    • F
    • F#
    • G
    • Ab
  • Adicionar à lista

    0 comentários

    Ver todos os comentários

    Conseguiu tocar?

    2 Tocaram 0 Ainda não

    Grave um vídeo tocando Salto e nos envie!

    Entre para oCifra Club PRO

    Tenha acesso a benefícios exclusivos no App e no Site

    • Chega de anúncios

    • Prioridade de compra em lançamentos

    • Mais recursos no app do Afinador

    • Atendimento Prioritário

    • Descontos nos produtos Cifra Club

    • Ajude a produzir mais conteúdo

    00:00 / 00:00

    Cifra Club Pro

    Aproveite o Cifra Club com benefícios exclusivos e sem anúncios
    Cifra Club Pro
    Aproveite o Cifra Club com benefícios exclusivos e sem anúncios
    OK