Cifra Club

A lua me traiu

Banda Calypso

Cifra: Principal
exibições 234.124
Tom: G
INTRO.: G  (Em Am Em Am C D Em)  


  Em                       Am                     Em
e|-----3-2-0-3-2-0-----------------------------------|
B|--0--------------1/3-1-0-1/3-1-0-1--3/5-3-1-1h3-0--|
G|---------------------------------------------------|
D|---------------------------------------------------|
A|---------------------------------------------------|
E|---------------------------------------------------|


                           Am                     C
e|-----3-2-0-3-2-0-----------------------------------|
B|--0--------------1/3-1-0-1/3-1-0-1--3/5-3-1-1h3-1--|
G|---------------------------------------------------|
D|---------------------------------------------------|
A|---------------------------------------------------|
E|---------------------------------------------------|


                 Versão Simplificada        Versão Original

             D    Em                        Em
e|-------------| -3-2--3-2-0-3-2-0-3-2-0--| -3-2--3-2--3-3p2p0-3-3p2p0---|   
B|-----3--5--3-| -----------------------3-| ---------------------------3-|
G|--5----------| -------------------------| -----------------------------|
D|-5-----------| -------------------------| -----------------------------|
A|------------ | -------------------------| -----------------------------|
E|------------ | -------------------------| -----------------------------|


G       D            C
Parece até conto de fadas 
       
Mas assim aconteceu 
G        D         C
Éramos dois apaixonados 
     C
Julieta e Romeu 

G        D          C
Naquela noite encantada 
          
Pedi pra lua dos amantes 
G         D          C
Que iluminasse essa hora 
                      Am
Pra esse amor eternizar 
                  D
Mas num passe de mágica 
              Bm
Você desapareceu 
               Em
Um eclipse maldito 
                 Am
O encanto se perdeu 
                    D*
E o meu coração partido       
D#º*                    Em*
Foi sofrendo e foi sofrendo 
                   D
Tentando te encontrar na madrugada 
A
Fria madrugada 

REFRÃO(2x)
G            D
A lua me traiu
    Am         C
Acreditei que era pra valer 
G           D
A lua me traiu 
   Am              C           G
Fiquei sozinha e louca por você 

     D    C
Ah, ah, ah, ah 
                     G
Não consigo te esquecer 
    D         C
Ah, ah, ah, ah 
                    G
Apaixonada por você 

Repete Introd. e Canto a partir de ...Naquela noite encantada... até o fim.

Substituir acordes com * 

 D       D#º    Em
-------10-------11-------12--|
----10-------10-------10-----|
-11-------11-------11--------|
-----------------------------|
-----------------------------|
-----------------------------|
Acordes para:
    Colaboração e revisão:
    • Fernando Souza
    • Vital Nascimento

    0 comentários

      mostrar mais comentários

      Conseguiu tocar?

      24tocaram0ainda não

      Grave um vídeo tocando A lua me traiu e mande pra gente!

      00:00 / 00:00
      outros vídeos desta música
      repetirqualidadeautomática
      Outro vídeos desta música
        00:00 / 00:00
        automática
        OK