Cifra Club

Disse adeus

Banda Calypso

Cifra: Principal (violão e guitarra)
Selo Cifra Club: esta cifra foi revisada para atender aos critérios oficiais da nossa Equipe de Qualidade.
tom: C
[Intro] Dm  E7  F  E7
        Am  F  C  E7

[Tab - Primeira Parte]

E|-------------------------------------------------------------------------------------------|
B|---12-13-12-13-12-13-12-13-12-10-----------------------------------------------------------|
G|---------------------------------12--14-12-14-12-14-12-14-12-10-9-10-9-10-9-10-9-7----7-9--|
D|-----------------------------------------------------------------------------------10------|
A|-------------------------------------------------------------------------------------------|
E|-------------------------------------------------------------------------------------------|

E|--------------10-13-12---------------------------------------------------------------------|
B|---------9-12------------------------------------------------------------------------------|
G|-10-9-10-----------------------------------------------------------------------------------|
D|-------------------------------------------------------------------------------------------|
A|-------------------------------------------------------------------------------------------|
E|-------------------------------------------------------------------------------------------|

        Am
Disse adeus
                               C
E nem me deu um tempo para explicar
                               Dm
Eu pude ver o brilho naquele olhar
                           F
Que você iria me deixar de vez
        F
Disse adeus
                               C
E eu saí correndo no meio da rua
                                 G
Gritando e implorando quase toda nua
                                  Dm                           Am
Você é o meu homem não me deixe assim .... e não me deixe assim

E|-------------------------------|
B|--12-13-12-13-12-13-12-13-10---|
G|-------------------------------|
D|-------------------------------|
A|-------------------------------|
E|-------------------------------|

Am
Disse adeus
                               C
E nem me deu um tempo para explicar
                               Dm
Eu pude ver o brilho daquele olhar
                            F
Que você iria me deixar de vez
        F
Disse adeus
                             C
E eu saí correndo no meio da rua
                                G
Gritando e implorando quase toda nua
                                 Dm       Am
Você é o meu homem não me deixe assim

E|---------------------------------------|
B|--12-13-12-13-12-13-12-10------10------|
G|--------------------------9------------|
D|----------------------------10---------|
A|---------------------------------------|
E|---------------------------------------|

F                                 C
Jamais um outro homem tomou seu lugar
                                  G
Por que você não deixa eu te explicar
                                   Dm
Que aquele cara é apenas um amigo meu
F                          C
Só você é o dono do meu coração
                                 G
Por você eu estou de joelhos no chão
                                 Dm                         Am
Te implorando amor não me deixe assim ....e não me deixe assim

[Intro] Am  F  C  G
Outros vídeos desta música
    70.037 exibições
      • ½ Tom
      • A
      • Bb
      • B
      • C
      • Db
      • D
      • Eb
      • E
      • F
      • F#
      • G
      • Ab
    • Adicionar à lista

    Afinação da cifra

    Afinador online

      0 comentários

      Ver todos os comentários

      Entre para o Cifra Club PRO

      Tenha acesso a benefícios exclusivos no App e no Site

      • Chega de anúncios

      • Badges exclusivas

      • Mais recursos no app do Afinador

      • Atendimento Prioritário

      • Aumente seu limite de lista

      • Ajude a produzir mais conteúdo

      Cifra Club Pro

      Aproveite o Cifra Club com benefícios exclusivos e sem anúncios
      Cifra Club Pro
      Aproveite o Cifra Club com benefícios exclusivos e sem anúncios
      Ops (: Contenido disponible sólo en portugués.
      OK