Cifra Club

Isso é Calypso

Banda Calypso

Cifra: Principal (violão e guitarra)
Tom: A#
Intro: Cm - G# - Eb - Bb

#Riff Intro#
E|----------------------|------------|
B|----------------------|------------|
G|-------8--------8-----|------------|
D|--7/10---10--10---10--|------------|
A|----------------------|------------|
E|----------------------|------------|

Cm          G#             Eb
 chegou, virou, botou pressão
       Bb          Cm
 Balançou, balançou
       G#            Eb
 Swing de tremer o chão
      Bb       Cm
 Isso é Calypso
         G#            Eb
 Vem sacudindo a multidão
       Bb          Cm
 Balançou, balançou
          G#         Eb  Bb
 Cantando amor e paixão

G#                   Bb
 Vem na levada do estado do Pará
G#                  Cm
 Vem nesse ritmo comigo
G#                            Bb
 Solte o seu corpo e deixe o sonho te levar
G#                      G
 Você não vai querer parar

C           Am         F
 Deixa a guitarra swingar  [ #Riff 1# ] 
           G    
 Dirim, dirim, dirim, dom
C           Am          F
 E o som bater meu coração   
      G
 Dim, dim, dom
C          Am             F
 O toque é bom pra se dançar  [ #Riff 1# ]
           G
 Dirim, dirim, dirim, dom
C       Am           F
 E bata na palma da mão
       G
 Dim, dim, dom

 Cm        G#
 Demorou, demorou
Eb           Bb
 Vem dançar comigo amor
 Cm        G#
 Demorou, demorou
Eb            Bb
 Vem dançar Calypso
 Cm        G#
 Demorou, demorou
Eb           Bb
 Vem dançar comigo amor
 Cm        G# 
 Demorou, demorou
Eb        Bb
 Isso é Calypsooo  [ #Riff Intro# ]

G#                   Bb
 Vem na levada do estado do Pará
G#                  Cm
 Vem nesse ritmo comigo
G#                            Bb
 Solte o seu corpo e deixe o sonho te levar
G#                      G
 Você não vai querer parar

C           Am         F
 Deixa a guitarra swingar   [ #Riff 1# ] 
           G    
 Dirim, dirim, dirim, dom
C           Am          F
 E o som bater meu coração
      G
 Dim, dim, dom
C          Am             F
 O toque é bom pra se dançar  [ #Riff 1# ] 
           G
 Dirim, dirim, dirim, dom
C       Am           F
 E bata na palma da mão
       G
 Dim, dim, dom 
 
Cm         G#
 Demorou, demorou
Eb           Bb
 Vem dançar comigo amor
 Cm        G#
 Demorou, demorou
Eb            Bb
 Vem dançar Calypso
 Cm        G#
 Demorou, demorou
Eb           Bb
 Vem dançar comigo amor
 Cm        G# 
 Demorou, demorou
Eb        Bb
 Isso é Calypsooo
                   
 Demorou, demorou   |
 Demorou, demorou   | [ #Riff 2# ]
 Demorou, demorou   |
                   
[Cm - G# - Eb - Bb]
 Demorou, demorou 
 Demorou, demorou 
 Demorou, demorou 

#Riff 1# 

E|------5---5-------|-------------|
B|--5-5---7---7--5--|-------------|
G|------------------|-------------|
D|------------------|-------------|
A|------------------|-------------|
E|------------------|-------------|

#Riff 2#
E|-------------------|-------------------|--------------------|
B|-------------------|-------------------|--------------------|
G|--------0-------0--|--------0----------|--------------------|
D|----1-3---3-1-3----|----1-3---3-1-0----|--------------------|
A|--3----------------|--3-------------3--|--------------------|
E|-------------------|-------------------|--------------------|
exibições 31.440
Acordes para:
    Composição: Beto Caju / Chimbinha Colaboração e revisão:
    • Leandro Souza

    0 comentários

    mostrar mais comentários

    Conseguiu tocar?

    0 tocaram 0 ainda não

    Grave um vídeo tocando Isso é Calypso e mande pra gente!

    00:00 / 00:00
    outros vídeos desta música
    repetir qualidade Automático
    Outros vídeos desta música
    00:00 / 00:00
    Automático
    OK