Cifra Club

Anjo

Banda Eva

Cifra: Principal (violão e guitarra)
tom: Bb
[Intro] Bb7M/D  Eb7M(9)  Bb7M/D  Eb7M(9) 

   Bb7M/D         Eb7M(9) 
E|---------5--------------6\5---------------|
B|-----6-------6------6-------6-------------|
G|---7---7---7------7---7-------------------|
D|------------------------------------------|
A|-5--------------6-------------------------|
E|------------------------------------------|

   Bb7M/D      Eb7M(9)
E|---------5---6------6\5-------------------|
B|-----6------------6-----6-----------------|
G|---7---7---7----7-------------------------|
D|------------------------------------------|
A|-5-----------6----------------------------|
E|------------------------------------------|

   Bb7M/D         Eb7M(9) 
E|---------5--------------6\5---------------|
B|-----6-------6------6-------6-------------|
G|---7---7---7------7---7-------------------|
D|------------------------------------------|
A|-5--------------6-------------------------|
E|------------------------------------------|

   Bb7M/D      Eb7M(9)
E|---------5---6----------------------------|
B|-----6------------------------------------|
G|---7---7---7------------------------------|
D|------------------------------------------|
A|-5-----------6----------------------------|
E|------------------------------------------|

[Primeira Parte]

[Dedilhado Padrão]

   Bb7M/D         Eb7M(9) 
E|---------5--------------6\5---------------|
B|-----6-------6------6-------6-------------|
G|---7---7---7------7---7-------------------|
D|------------------------------------------|
A|-5--------------6-------------------------|
E|------------------------------------------|

   Bb7M/D      Eb7M(9)
E|---------5---6------6\5-------------------|
B|-----6------------6-----6-----------------|
G|---7---7---7----7-------------------------|
D|------------------------------------------|
A|-5-----------6----------------------------|
E|------------------------------------------|

   Bb7M/D         Eb7M(9) 
E|---------5--------------6\5---------------|
B|-----6-------6------6-------6-------------|
G|---7---7---7------7---7-------------------|
D|------------------------------------------|
A|-5--------------6-------------------------|
E|------------------------------------------|

   Bb7M/D      Eb7M(9)
E|---------5---6----------------------------|
B|-----6------------------------------------|
G|---7---7---7------------------------------|
D|------------------------------------------|
A|-5-----------6----------------------------|
E|------------------------------------------|

Bb7M/D             Eb7M(9)
       Acredita em anjo
     Bb7M/D    Eb7M(9)
Pois é, sou o seu
Bb7M/D                  Eb7M(9)
       Soube que anda triste
           Bb7M/D      Eb7M(9)
Que sente falta de alguém
          Ab7M            F7(9/11)  F7(9/13)
Que não quer amar ninguém

Bb7M/D  Eb7M(9)                   Bb7M/D
                Por isso estou aqui
                 Eb7M(9)
Pra cuidar de você
                   Bb7M/D    Eb7M(9)
Te proteger, te fazer sorrir
                   Bb7M/D
Te entender, te ouvir
                     Eb7M(9)
E quando estiver cansada
    Ab7M               F7(9/11)  E7(9/#11)
Cantar pra você dormir

[Segunda Parte]

Eb7M(9)                      F/Eb
        Te colocar sobre as minhas asas
Bb/D                      Gm7          F4(6)
     Te apresentar as estrelas do meu céu
C/E                         Ebm7  Ebm7(13)
    Passar em Saturno e roubar
            Bb7M/D    Eb7M(9)  Bb7M/D  Eb7M(9)
O seu mais lindo anel

[Primeira Parte]

Bb7M/D        Eb7M(9)
       Vou secar
          Bb7M/D             Eb7M(9)
Qualquer lágrima que ousar cair
         Bb7M/D                   Eb7M(9)
Vou desviar todo mal do seu pensamento
                 Bb7M/D
Estar contigo a todo momento
           Eb7M(9)
Sem que você me veja
Ab7M                            F7(9/11)  E7(9/#11)
     Vou fazer tudo que você deseja

[Segunda Parte]

Eb7M(9)                   F/Eb
        Mas de repente você me beija
Bb/D                        Gm7               F4(6)
     O coração dispara e a consciência sente dor
  C/E                     Ebm7  Ebm7(13)
E eu descubro que além de anjo
          Bb7M/D     Eb7M(9)  Bb7M/D  Eb7M(9)
Eu posso ser o seu amor

[Primeira Parte]

Bb7M/D        Eb7M(9)
       Vou secar
          Bb7M/D             Eb7M(9)
Qualquer lágrima que ousar cair
         Bb7M/D                   Eb7M(9)
Vou desviar todo mal do seu pensamento
                 Bb7M/D
Estar contigo a todo momento
           Eb7M(9)
Sem que você me veja
Ab7M                            F7(9/11)  E7(9/#11)
     Vou fazer tudo que você deseja

[Segunda Parte]

Eb7M(9)                   F/Eb
        Mas de repente você me beija
Bb/D                        Gm7               F4(6)
     O coração dispara e a consciência sente dor
  C/E                     Ebm7  Ebm7(13)
E eu descubro que além de anjo
          Bb7M/D     Eb7M(9)  Bb7M/D  Eb7M(9)
Eu posso ser o seu amor

[Final] Bb/D  Ebm7  Ebm7(13) 
        Bb/D  Ebm7  Ebm7(13)  
        Bb/D  Ebm7  Ebm7(13) 
        Bb/D  Ebm7  Ebm7(13)  Bb
Composição de Leonardo Reis / Saulo Fernandes
613.198 exibições
    • ½ Tom
    • A
    • Bb
    • B
    • C
    • Db
    • D
    • Eb
    • E
    • F
    • F#
    • G
    • Ab
  • Adicionar à lista

    0 comentários

    Ver todos os comentários
    00:00 / 00:00
    Outros vídeos desta música
    Repetir Qualidade Automático
    Outros vídeos desta música
    00:00 / 00:00
    Automático

    Cifra Club Pro

    Aproveite o Cifra Club com benefícios exclusivos e sem anúncios
    Cifra Club Pro
    Aproveite o Cifra Club com benefícios exclusivos e sem anúncios
    OK