Enviar cifraEntrar

Circulou

Banda Eva

Cifra: Principal
exibições 112.603
Tom: C
Intro: C7M  Dm7         Acordes "Cheios"


E|---3-3-3-3-3-5-5-5--5-5-3-3-3--3-3-5-5-5-5----------|
B|---5-5-5-3-5-6-6-6--5-6-5-5-5--3-5-6-6-6-6----------|
G|---4-4-4-4-4-5-5-5--5-5-4-4-4--4-4-5-5-5-5----------|
D|---5-5-5-5-5-7-7-7--7-7-5-5-5--5-5-7-7-7-7----------|
A|---3-3-3-3-3-5-5-5--5-5-3-3-3--3-3-5-5-5-5----------|
E|----------------------------------------------------|


 Intro: C7M  Dm7         1ª Parte                                         2ª Parte
E|----8-7-5------7-5--------8-7-5---------------------|--12-12-12-10-8-10-10-/--13-13-13-13-12-10-8-8-------|
B|----------8-6------8-6-5--------8-6-8-10-12--10-----|----------------------/------------------------------|
G|---9----5-----7----------9----5------------12--10-9-|--12-12-12-10-9-10-10-/--14-14-14-14-12-10-9-9-------|
D|----------9-7------9-7-5--------9-7-----------------|----------------------/------------------------------|
A|----------------------------------------------------|----------------------/------------------------------|
E|----------------------------------------------------|----------------------/------------------------------|


 Intro: C7M  Dm7        2ª Parte Continuação
E|-12-12-12-12-10-8-10-10-/-----------------------8-8----|
B|-------------------- - -/------------------------------|
G|-12-12-12-12-10-9-10-10-/--10-10-----10-10------9-9----| Repete a partir da 2ª Parte
D|------------------------/-------12-10-----12-10--------|
A|------------------------/------------------------------|
E|------------------------/------------------------------|





C7M                                Dm7
Circulou, circulou, circulou, circulou
                    C7M                             Dm7
É tão maravilhoso o nosso amor, é tão maravilhoso o nosso amor (2x)

        C7M
A nossa química bateu
         Dm7
O nosso amor Apareceu
         C7M
Se tem alguém que te quer bem
            Dm7
Esse alguém sou eu
         C7M
Cola meu corpo com o seu
         Dm7
Ser personagem do prazer
          C7M                     Dm7
Ou simplesmente ser alguém na sua vida

Refrão:
C7M                  Dm7
Vem cá, pode chegar, Deixa de besteira
         C7M           Dm7
Sou todo seu, todo seu        (2X)


C7M                                Dm7
Circulou, circulou, circulou, circulou
                    C7M                             Dm7
É tão maravilhoso o nosso amor, é tão maravilhoso o nosso amor (2x)


        C7M
A nossa química bateu
         Dm7
O nosso amor Apareceu
         C7M
Se tem alguém que te quer bem
            Dm7
Esse alguém sou eu
         C7M
Cola meu corpo com o seu
         Dm7
Ser personagem do prazer
          C7M                     Dm7
Ou simplesmente ser alguém na sua vida


Refrão:
C7M                  Dm7
Vem cá, pode chegar, Deixa de besteira
         C7M           Dm7
Sou todo seu, todo seu        (2X)


C7M                       Dm7                      Em7             Dm7
   Vamos correr com a  lua, e perceber que ela corre com você


Frase de Guitarra


E|-------------------------15-|
B|-------------------12-13----|
G|----7------10---12----------|
D|--9---9-10----7-------------|
A|----------------------------|
E|----------------------------|


       C7M               Dm7                      Em7   Dm7
          Não custa perceber, que ela pode nos guiar...


Vem cá, pode chegar, Deixa de besteira        |

                                              |Só Bateria e Percussão 2X

Sou todo seu, todo seu   {(F/G) Final da 2ª Vez JUNTO COM A BATERIA E PERCUSSÃO}

    G/A              Dm7
Vem cá, pode chegar, Deixa de besteira
         C7M            Dm7
Sou todo seu, todo seu


C7M                                Dm7
Circulou, circulou, circulou, circulou
                    C7M                             Dm7
É tão maravilhoso o nosso amor, é tão maravilhoso o nosso amor (4x)


C7M       C7M
Circulou, circulou,
  • 1
  • 2
  • 3
  • 4
  • 5
  • 6
  • 7
  • 8
  • 9
  • 10
  • 11
  • 12
    Acordes para:
      Composição: Fábio Alcântara / Leonardo Reis / Magary LordColaboração e revisão:

      0 comentários

        mostrar mais comentários

        Conseguiu tocar?

        14tocaram0ainda não

        Grave um vídeo tocando Circulou e mande pra gente!

        00:00 / 00:00
        outros vídeos desta música
        repetirqualidadeautomática
        • automática
        Outro vídeos desta música
          00:00 / 00:00
          automática
          • automática
          Acordes para:violão e guitarra
          dificuldadeexibiçõescontribuições
          fecharplay/pause subir/descer velocidade
            acordes
            fechar
            OK
            Feedback