Cifra Club

Mentiras

Banda Torpedo

Cifra: Principal (violão e guitarra)
Tom: A#
INTRO Gm D# Bb


E|----5-7-5-------5-7-5----7--------------------------------------|
B|--7----------7-------------5------------------------------------|
G|-----------------------------7-7-6-6-4-4---4-6-4----------------|
D|-----------------------------------------7-----------------------|
A|---------------------------------------------------------------|
E|---------------------------------------------------------------|

E|----5-7-5-------5-7-5----7--------------------------------------|
B|--7----------7-------------5------------------------------------|
G|-----------------------------7-7-6-6-4-4---4~--------------------|
D|-----------------------------------------7-----------------------|
A|---------------------------------------------------------------|
E|---------------------------------------------------------------|

Gm                  D#       F                  Gm
Me diz o que eu te fiz amor, pra merecer essa traição?
                D#                  F                   Gm
Você dizia me amar, que pena acreditei no que você me falou
                        D#                 F                Gm
Que eu era o seu único amor, mas era só mentira, você me enganou
                        D#         F                         Gm
Tudo o que eu te falei foi do coração, minha intenção nunca foi te enganar
              D#   F               Gm
Eu sei que errei, mas tente que me perdoar
            D#    F                   Gm
Sei que vacilei, prometo nunca mais errar
Porque te amo.

Gm         D#      Bb                  F             Gm
Mentira, mentira, mentira, a nossa relação foi uma mentira
  D#        Bb               F
Mentira, mentira, tudo o que você me falou
Cm                                    Gm
Toda noite choro quando lembro da decepção
              D#
Mas isso foi bom para aprender
                            Cm
Que eu estava cega, louca de amor por você
                        Gm                          F
Quando alguém vinha me dizer que você estava a me trair
              Gm
Eu nunca quis acreditar
exibições 4.752
Acordes para:
    Colaboração e revisão:
    • joas ferreira

    0 comentários

    mostrar mais comentários

    Conseguiu tocar?

    0 tocaram 0 ainda não

    Grave um vídeo tocando Mentiras e mande pra gente!

    00:00 / 00:00
    outros vídeos desta música
    repetir qualidade Automático
    Outros vídeos desta música
    00:00 / 00:00
    Automático
    OK