Cifra Club

Aprenda

Cobra de Vidro

Banzé

Cifra: Principal (violão e guitarra)
tom: B
Intro:  E B G#m (4x)

Verso:
E           B G#m
  Os mortos,     enfeitam as ruas
E                  B G#m
  Junto ao perfume,     de lixo e gás
E             B G#m
  Do oratório       à Santo Amaro
E              B  G#m
  Das rodovias       às marginais

Estribilho:
F#               G#m
  Sigo o cortejo  agourento
F#               G#m
  Como uma procissão
F#                G#m
  Nada me resta de concreto
F#             G#m
  Além da solidão

Pré-Refrão:
C#m
 Sob o cimento
B
Sob o cimento
C#m
Sob o cimento
A#4
Ooh

Refrão:
E            G#m
 Nem um som ou movimento
B               C#m
 Só o silêncio, só o silêncio
E            G#m
 Ideais e sentimentos
B               C#m
 Só o silêncio, só o silêncio
E            G#m
 Não há dor ou sofrimento
B
 Só o silêncio
C#m          A#4
 Ooh  Oh oh oh
E            B G#m
 Nem perdição,    nem firmamento
E              B G#m
 Nem julgamento,    nem redenção
E          B G#m
 Nem emoção,     nem pensamento
E             B G#m
 Nem desalento,    nem salvação

F#                G#m
Sigo o cortejo agourento
F#                G#m
Como uma procissão
F#                G#m
Nada me resta de concreto
F#                G#m
Além da solidão
C#m            B               C#m
 Sob o cimento, Sob o cimento, Sob o cimento
A#4
Ooh

Refrão:
E            G#m
 Nem um som ou movimento
B               C#m
 Só o silêncio, só o silêncio
E            G#m
 Ideais e sentimentos
B               C#m
 Só o silêncio, só o silêncio
E            G#m
 Não há dor ou sofrimento
B
 Só o silêncio
C#m          A#4
 Ooh  Oh oh oh

Solo:
E|------------------------------------------------------------------------------------------------------------|
B|------------------------------------------------------------------------------------------------------------|
G|---6b8--6-4------6b8-8--6-4-----6b8-6b8----6b8r6p4---4--------------------------------11---11---11--11--11--|
D|------------6---------------6----------------------6---6/13-13-11-13-11-9-----9-11/13----13---13--13--13----|
A|--------------------------------------------------------------------------11--------------------------------|
E|------------------------------------------------------------------------------------------------------------|

E|----------11---------------------|
B|--------11---14b16--14b16r14b16--|
G|--13b15--------------------------|
D|---------------------------------|
A|---------------------------------|
E|---------------------------------|

Refrão:
E            G#m
 Nem um som ou movimento
B               C#m
 Só o silêncio, só o silêncio
E            G#m
 Ideais e sentimentos
B               C#m
 Só o silêncio, só o silêncio
E            G#m
 Não há dor ou sofrimento
B
 Só o silêncio
C#m          A#4
 Ooh  Oh oh oh
Composição de Meneghini / Rabelo
Colaboração e revisão:
  • João Eduardo
130 exibições
    • ½ Tom
    • A
    • Bb
    • B
    • C
    • Db
    • D
    • Eb
    • E
    • F
    • F#
    • G
    • Ab
  • Adicionar à lista

    0 comentários

    Ver todos os comentários

    Conseguiu tocar?

    0 Tocaram 0 Ainda não

    Grave um vídeo tocando Cobra de Vidro e nos envie!

    00:00 / 00:00
    outros vídeos desta música
    repetir qualidade Automático
    Outros vídeos desta música
    00:00 / 00:00
    Automático

    Cifra Club Pro

    Aproveite o Cifra Club com benefícios exclusivos e sem anúncios
    Cifra Club Pro
    Aproveite o Cifra Club com benefícios exclusivos e sem anúncios
    OK