Cifra Club

Saudade de Rosa

Bartô Galeno

Cifra: Principal (violão e guitarra)
Selo Cifra Club: esta cifra foi revisada para atender aos critérios oficiais da nossa Equipe de Qualidade.
tom: A
[Intro] Cm  Gm  D7  Gm

[Tab - Intro]

Parte 1 de 2
E|--------------------------------------------------------------|
B|----------------------3---------------------------------------|
G|------2-3-5-5-5-3---3---3-2-2-2-------------------------------|
D|---5--------------5-------------4---5-------------------------|
A|----------------------------------5---------------------------|
E|--------------------------------------------------------------|

Parte 2 de 2
E|--------------------------------------------------------------|
B|------------------------------------------3--------5----------|
G|----235-553-------235-553--------235-553-3-322-2-5------------|
D|---5-------5--5-55--------5--5-55-------5-------4-------------|
A|--------------------------------------------------------------|
E|--------------------------------------------------------------|

(Tocar parte 1, parte 2, parte 1, parte 2)

         Cm         Gm
Eu ontem tive tanta sorte
              Cm                   Gm
A malvada da morte andou perto de mim
           Cm          Gm
Eu no meu carro dei bobeira
            D7               Gm
Numa brincadeira quase levo fim

         Cm         Gm
Andava a toda velocidade
                  Cm                      Gm
Pra superar a saudade que andava junto a mim
         Cm          Gm
Esta saudade era de Rosa
            D7              Gm
Coisa mais linda do meu jardim
         Cm          Gm
Esta saudade era de Rosa
            D7              Gm
Coisa mais linda do meu jardim

          Cm              Gm
Eu também sou filho do divino
           Cm               Gm
Por ser menino, Deus me perdoou
        Cm               Gm
Compreendi que estava errado
            D7              Gm
Que não se deve morrer por amor
        Cm               Gm
Compreendi que estava errado
            D7              Gm
Que não se deve morrer por amor

         Cm          Gm
Esta saudade era de Rosa
            D7              Gm
Mas não se deve morrer por amor
        Cm               Gm
Compreendi que estava errado
            D7              Gm
Que não se deve morrer por amor
Outros vídeos desta música
    144.067 exibições
    • Simplificar cifra
      • ½ Tom
      • A
      • Bb
      • B
      • C
      • Db
      • D
      • Eb
      • E
      • F
      • F#
      • G
      • Ab
    • Adicionar à lista

    Afinação da cifra

    Afinador online

      0 comentários

      Ver todos os comentários

      Entre para o Cifra Club PRO

      Tenha acesso a benefícios exclusivos no App e no Site

      • Chega de anúncios

      • Badges exclusivas

      • Mais recursos no app do Afinador

      • Atendimento Prioritário

      • Aumente seu limite de lista

      • Ajude a produzir mais conteúdo

      Cifra Club Pro

      Aproveite o Cifra Club com benefícios exclusivos e sem anúncios
      Cifra Club Pro
      Aproveite o Cifra Club com benefícios exclusivos e sem anúncios
      OK