Cifra Club

Four Letter Word

Beady Eye

Cifra: Principal (violão e guitarra)
Tom: G
Intro: (A5 D#5 D5)

A5
Sleepwalk away the life
                  D5
If that turns you on
     C5
It's only a moment
B5    Bb5            A5
Look away and it's gone

A5
It's about time
                          D5
That your mind took a holiday
C5
You're all grown up
Bb                   A5   D#5 D5
Don't you ever wanna play?

C5     B5         Bb5
Ahh... You've had enough (of)
Am
Staring out of dead end eyes
C5         B5         Bb5
Ahh...It's gonna be tough
    A5
The battle's on and your soul is the prize
  C5               B5       Bb5
I don't know what it is I'm feeling
A5
A four letter word really gets my meaning
D5           C5         B5
Nothing ever lasts forever

Riff: (A5 D#5 D5) 4X

Solo: A5 D5 C5 B5 Bb5

E|-----------------------------------------------------------------------------|
A|-----------------------------------------------------------------------------|
D|-----------------------------------------------------------------------------|
G|-7/9--------------7/9------7b-5-7-5--7b-5-7-5-2b-0-2-0-02020202020202020202b-|
B|-----8-10------10-----8-10---------------------------------------------------|
E|----------8-10---------------------------------------------------------------|

E|----------------------------------------------------------------------|
A|----------------------------------------------------------------------|
D|----------------------------------------------------------------------|
G|-7/9---------7/9---------7/9-9-7-5-7-5-7b7-5-7--9---------------------|
B|-----10-8-10-----10-8-10--------------------------8-10------10--------|
E|-------------------------------------------------------10-8----8-12-8-|

E|------------------------------------|
A|------------------------------------|
D|------------------------------------|
G|------------------------------------|
B|-10------10/8-8/7-5-7-5-7b--5-------|
E|----10-8----------------------------|


A5
Get on your feeling
                  D5
Going out of your mind
          C5
The wheel needs to roll
    B5           Bb5            A5
The clock on the wall says it's time

A5
Call it love
                     D5
Call it whatever you please
     C5
It's not what you want
   B5       Bb5           A5   D#5 D5
It be might just what you need


C5     B5         Bb5
Ahh... You've had enough (of)
A5
Staring out of dead end eyes
C5         B5         Bb5
Ahh...It's gonna be tough
    A5
The battle's on and your soul is the prize
  C5               B5       Bb5
I don't know what it is I'm feeling
A5
A four letter word really gets my meaning
D5           C5         B5
Nothing ever lasts forever

(A5 D#5 D5)

C5     B5         Bb5
Ahh... You've had enough (of)
A5
Staring out of dead end eyes
C5         B5         Bb5
Ahh...It's gonna be tough
    A5
The battle's on and your soul is the prize
  C5               B5       Bb5
I don't know what it is I'm feeling
A5
A four letter word really gets my meaning
D5           C5         B5
Nothing ever lasts forever

(A5 D#5 D5)

D5           C5    B5
Nothing ever lasts forever

(A5 D#5 D5)

D5           C5    B5
Nothing ever lasts forever

(A5 D#5 D5)

D5           C5    B5
Nothing ever lasts forever

SOLO FINAL: A5 D#5 D5
exibições 3.155
Acordes para:
    Composição: Andy Bell / Gem Archer / Liam Gallagher Colaboração e revisão:
    • Eduardo Santos
    • Matheus

    0 comentários

    mostrar mais comentários

    Conseguiu tocar?

    0 tocaram 0 ainda não

    Grave um vídeo tocando Four Letter Word e mande pra gente!

    00:00 / 00:00
    outros vídeos desta música
    repetir qualidade Automático
    Outros vídeos desta música
    00:00 / 00:00
    Automático
    OK