Cifra Club

I'm Just Saying

Beady Eye

Cifra: Principal (violão e guitarra)
Tom: C
Intro:  Em11/A  A
        Em11/A  A  C  F (4x)

     Em11/A  F    C7M(9)/B
E|-----------------------------
A|---0-----3--------2----------
D|---0-----3--------0----------
G|---0-----2--------0----------
B|---0-----1--------1----------
E|---0-----0--------0----------

Am                    C
You might think that grass is greener
    F                D/F#
And here I am on the other side
Am               C
Laying back on a round-a-bout
F                D/F#
Building castles in the sky

C              Am
Ten years later we'll remember
F                D/F#
Throw away songs we've learned today
C             Am
Twenty twenty visionary
F
Never waste a single day
D/F#
Never waste a single day
C'mon!

( Em11/A  A  C  F ) (4x)

Am                  C
Back again with the fist full of pennies
F            D/F#
All I get is join the queue
Am              C
Got called back while you were out
F                     D/F#
I'm not bothered, but so are you

C                 Am
It's plain to see
             F           D/F#
It's already down for me
             C               Am
Wanna make a feast of it all
           F                D/F#
Scratch my name on the wall

    C            Am
I'm feeling fine
           F             D/F#
This is my time to shine
                     C            Am
It's nearly but it's not too late
                     F
The future's getting underway

               D/F#
I'm just saying, I'm just saying

Solo: Base Em11/A A C F (8x)

repete a tablatura 2 vezes

E|-----------------------------------------------
A|----------------5h7-------------------5h7------
D|-------10-5h7-------5--------10-5h7-5----------
G|-7-9-7--------5--------7-9-7-------------------
B|-----------------------------------------------
E|-----------------------------------------------


E|------------------------------------------------
A|----------------5h7-----------------------------
D|-------10-5h7-------5-5h7---7------------7------
G|-7-9-7--------5-----------5---5-7-5-7b-5--------
B|------------------------------------------------
E|------------------------------------------------

C              Am
Ten years later we'll remember
F                D/F#
Throw away songs we've learned today
C             Am
Twenty twenty visionary
F                    D/F#
Never waste a single day

C                 Am
It's plain to see
             F            D/F#
It's already down for me
             C               Am
Wanna make a feast of it all
           F                D/F#
Scratch my name on the wall

    C            Am
I'm feeling fine
           F             D9
This is my time to shine
                     C            Am
It's nearly but it's not too late
                     F         D9
The future's getting underway

                 C       C7M(9)/B Am
I'm just saying (1, 2, 3)
                 F          D9
I'm just saying (you and me)
                 C       C7M(9)/B Am
I'm just saying (7, 8, 9)
                 F               D9
I'm just saying (no wasting time)
                 C       C7M(9)/B Am
I'm just saying (1, 2, 3)
                 F          D9
I'm just saying (you and me)
                 C       C7M(9)/B Am
I'm just saying (7, 8, 9)
                 F               D9
I'm just saying (no wasting time)

I'm just saying...

Solo final: Base ( C  Am  F  D9 ) (4x)

E|-------------------------------------------------
A|----------------5h7------------------------------
D|-------10-5h7-------5-5h7---7------------7-5-----
G|-7-9-7--------5-----------5---5-7-5-7b-5---------
B|-------------------------------------------------
E|-------------------------------------------------

E|-----------------------
A|-----------------------
D|-5h7---7------------7--
G|-----5---5-7-5-7b-5----
B|-----------------------
E|-----------------------

( A  C  F  D/F#  A )
exibições 1.290
Acordes para:
    Composição: Andy Bell Colaboração e revisão:
    • Eduardo Santos
    • Elisson Souza

    0 comentários

    mostrar mais comentários

    Conseguiu tocar?

    1 tocaram 0 ainda não

    Grave um vídeo tocando I'm Just Saying e mande pra gente!

    00:00 / 00:00
    outros vídeos desta música
    repetir qualidade Automático
    Outros vídeos desta música
    00:00 / 00:00
    Automático
    OK