Cifra Club

Start Anew

Beady Eye

Cifra: Principal (violão e guitarra)
Tom: E (forma dos acordes no tom de C) Capotraste na 4ª casa
Intro: C C5 G Em  C C5 G

     C   C5 G  Em  C   C5 G
E|--0---2--3--0---0---2--3---
A|--3---0--2--2---3---0--2---
D|--2---0--0--2---2---0--0---
G|--0---2--0--0---0---2--0---
B|--1---1--3--0---1---1--3---
E|--0---0--3--0---0---0--3---

 C                     C5
Help me understand or take me as I am
  G                        Em
I changed my point of view anything for you
      C
Gotta whole world in our hands
C5                                 G G7
Come on take a chance and start a new

C                               C5
Darling can't you see something deep inside of me
           G               Em
I'm gonna change your mind say that you'll be mine
      C
Gotta whole world in our hands
C5                                 G G7
Come on take a chance and start a new

SOLO:

    C                  C5                G         Em
E|-0--0---------------0--0--------------3--5--3---3--5--0--
B|-5--3---3--3--3--3--5--3--3--3--3--3--3--3--3---3--3--5--
G|--------5--4--2--0--------5--4--2--0---------------------
D|---------------------------------------------------------

    C                 C5                G    G7
E|-0--0--------------0--0--------------3-----1-
B|-5--3--3--3--3--3--5--3--3--3--3--3--3-----0-
G|-------5--4--2--0--------5--4--2--0----------
D|---------------------------------------------

C                         C5
Wipe away those tears and please don't be upset
G                      Em
Tell me all your fears this all will address (4X)

      C
Gotta whole world in our hands
C5                                Em         A7
Come on take a chance and start a new me and you

MELODIA
(C C5 Em A7 )(4X)

      C
Gotta whole world in our hands
C5                                Em         A7
Come on take a chance and start a new me and you

E|-------------------------|
B|-------------------------|
G|-------------------------|
D|-----------------------0-|
A|--2--2--2--2--0--h--2----|
E|--0--0--0--0-------------|

me and you
me and you
me and you...
exibições 4.576
Acordes para:
    Composição: Liam Gallagher Colaboração e revisão:
    • Eduardo Santos
    • Rafael Vaccari

    0 comentários

    mostrar mais comentários

    Conseguiu tocar?

    2 tocaram 0 ainda não

    Grave um vídeo tocando Start Anew e mande pra gente!

    00:00 / 00:00
    outros vídeos desta música
    repetir qualidade Automático
    Outros vídeos desta música
    00:00 / 00:00
    Automático
    OK