Cifra Club

The Update

Beastie Boys

Cifra: Principal (violão e guitarra)
Selo Cifra Club: esta cifra foi revisada para atender aos critérios oficiais da nossa Equipe de Qualidade.
tom: D
G|-5-5-5-5-5-|
D|-----------|
A|-----------|
E|-----------|

0:57, 1:01, 1:03, 1:07

e|-6-6-6-6-6-|
b|-7-7-7-7-7-|
G|-5-5-5-5-5-|
D|-----------|
A|-----------|
E|-----------|

1:28

E|-9--9----10--10----11--11----11--11--11-11-|
B|-9--9----10--10----11--11----11--11--11-11-|
G|-6--6----9---9-----8---8-----8---8---8--8--|
D|-------------------------------------------|
A|-------------------------------------------|
E|-------------------------------------------|

1:55, 2:07

E|---------|
B|---------|
G|-2-2-2-4-|
D|-4-4-4-4-|
A|---------|
E|---------|

This is about all you can do to recreate this riff on a guitar ^^^

2:14

E|-9--9----10--10----11--11----11--11--11-11-|
B|-9--9----10--10----11--11----11--11--11-11-|
G|-6--6----9---9-----8---8-----8---8---8--8--|
D|-------------------------------------------|
A|-------------------------------------------|
E|-------------------------------------------|

2:32, 2:56

E|---------|
B|---------|
G|-2-2-2-4-|
D|-4-4-4-4-|
A|---------|
E|---------|

3:03

E|-9--9--9--10--10--10--11--11----11--11--11-11-|
B|-9--9--9--10--10--10--11--11----11--11--11-11-|
G|-6--6--6--9---9---9---8---8-----8---8---8--8--|
D|----------------------------------------------|
A|----------------------------------------------|
E|----------------------------------------------|
Outros vídeos desta música
    4 exibições
      • ½ Tom
      • A
      • Bb
      • B
      • C
      • Db
      • D
      • Eb
      • E
      • F
      • F#
      • G
      • Ab
    • Adicionar à lista

    Afinação da cifra

    Afinador online

      0 comentários

      Ver todos os comentários

      Entre para o Cifra Club PRO

      Tenha acesso a benefícios exclusivos no App e no Site

      • Chega de anúncios

      • Badges exclusivas

      • Mais recursos no app do Afinador

      • Atendimento Prioritário

      • Aumente seu limite de lista

      • Ajude a produzir mais conteúdo

      Cifra Club Pro

      Aproveite o Cifra Club com benefícios exclusivos e sem anúncios
      Cifra Club Pro
      Aproveite o Cifra Club com benefícios exclusivos e sem anúncios
      Ops (: Contenido disponible sólo en portugués.
      OK