Cifra Club

Sing It Again

Beck

Cifra: Principal (violão e guitarra)
tom: Db
A A6  A Asus A

  A            Db7
a town of disrespect
                D
the trains are wrecked
             A
the night is younger then us
B7                   E
nowhere is anywhere else
                A
you keep to yourself
             D                   A
stirring the dregs where i have layed
F         E
the exit signs are flashing
A                     D              A
dead ends they won't come to life anymore

i pledge the rest
i should have guessed
your love was hanging by threads
tongues tied under the moon,
my love is a room of broken bottles
and tangled webs
the misers wind their minds
like clocks that grind their gears
on and on 

solo:
----------------------------11-12-11-12--------------------------
----------------------12-14-------------14---------14---12-------
-------------11-13-14------------------------14-12---------14-13-
----11-12-14-----------------------------------------------------
-12--------------------------------------------------------------
-----------------------------------------------------------------

--------------------------------------------0-5--7--9--7--7-7-
-------12-----------------------------------------------------
-13-14------14-13-11-13(14)--(14)13-11--------6--7--9--8--8-8-
---------------------------------------14---------------------
--------------------------------------------------------------
--------------------------------------------------------------

-5--5-5--4---4-5-7--5--------9-10-12--12-9-10\--5------------
--------------------5-----10----------------------7----------
-6--6-6--4---4-6-8--6---9------------------------------------
----------------------------------------------------7--4-7---
-----------------------------------------------------------7-
-------------------------------------------------------------

---------------------------------------------------------------
-------------------------------12------------------------------
----------11----------------14----14-14--11-14-14--14-13-14-13-
----11-14----12h14p12-11---------------------------------------
-12----------------------12------------------------------------
---------------------------------------------------------------

-5--5--7--8--9-9--9-9--9-9--9-9---10-----------9-------------
-----------------------8-8--8-8---10--------10---------------
-6--6--7--8--9-9--9-9--9-9--9-9---11---9-11------9-11-9--7-6-
-------------------------------------------------------------
-------------------------------------------------------------
-------------------------------------------------------------

and if its meant
some accident
some coincidence
crumbs fall out of the sky
when you wander by
the dust clouds blow
nobody's home
oh won't you lay my bags
upon on the funeral fire and sing it again 

harmonica solo

F            E
oh won't you lay my bags
A                   D                   A
upon on the funeral fire and sing it again
Composição de Beck
3.489 exibições
    • ½ Tom
    • A
    • Bb
    • B
    • C
    • Db
    • D
    • Eb
    • E
    • F
    • F#
    • G
    • Ab
  • Adicionar à lista

    0 comentários

    Ver todos os comentários

    Conseguiu tocar?

    0 Tocaram 0 Ainda não

    Grave um vídeo tocando Sing It Again e nos envie!

    00:00 / 00:00
    Outros vídeos desta música
    Repetir Qualidade Automático
    Outros vídeos desta música
    00:00 / 00:00
    Automático

    Cifra Club Pro

    Aproveite o Cifra Club com benefícios exclusivos e sem anúncios
    Cifra Club Pro
    Aproveite o Cifra Club com benefícios exclusivos e sem anúncios
    OK