Cifra Club

Facile

Daniel Bélanger

Cifra: Principal (violão e guitarra)
Selo Cifra Club: esta cifra foi revisada para atender aos critérios oficiais da nossa Equipe de Qualidade.
tom: D
Riff:                           D
E|---------------------------|--2----2----2----2----|
B|---------------------------|--3----3----3----3----|
G|---------------------------|--2----2----2----2----|
D|-----0h2-0---------0h2-0---|--0----0----0----0----|
A|-0h3-------3p2p0---------3-|----------------------|
E|-----------------3---------|----------------------|

                                A
E|---------------------------|--0----0----0----0----|
B|---------------------------|--2----2----2----2----|
G|---------------------------|--2----2----2----2----|
D|-----0h2-0---------0h2-0---|--2----2----2----2----|
A|-0h3-------3p2p0---------3-|--0----0----0----0----|
E|-----------------3---------|----------------------|

h = hammer on , p = pull off


Riff x2

E              G             E
Au fond des choses il m'apparait
E                   G                     D
que s'affronter soi-meme n'est pas si mauvais
                            A        E             D
Au fond des choses transparaissent- les avantages des desavantages

Riff D                         Riff A
     Mais ce n'est jamais facile -  Mais ce n'est jamais facile


E              G           E
Au fond des choses il apparait
E       G                 D
que le temps simplifie ma vie
                                                   A
Je ne veux pas etre amer - je ne veux pas etre amer
E                                  D
Je veux aimer tout ce que j'ai fait


Riff D                        Riff A
     Mais ce n'est jamais facile - Mais ce n'est jamais facile        (Répéter)
Outros vídeos desta música
    1 exibições
      • ½ Tom
      • A
      • Bb
      • B
      • C
      • Db
      • D
      • Eb
      • E
      • F
      • F#
      • G
      • Ab
    • Adicionar à lista

    Afinação da cifra

    Afinador online

      0 comentários

      Ver todos os comentários

      Entre para o Cifra Club PRO

      Tenha acesso a benefícios exclusivos no App e no Site

      • Chega de anúncios

      • Mais recursos no app do Afinador

      • Atendimento Prioritário

      • Aumente seu limite de lista

      • Ajude a produzir mais conteúdo

      Cifra Club Pro

      Aproveite o Cifra Club com benefícios exclusivos e sem anúncios
      Cifra Club Pro
      Aproveite o Cifra Club com benefícios exclusivos e sem anúncios
      OK