Cifra Club

Closed Doors

Belvedere

Cifra: Principal (violão e guitarra)
Tom: E
Tabbed by: Lola


*Tuned down a whole step!*

0:00-0:04
Steve
-------------------------|------------------------|
-------------------------|--1---------------------|
-----9------12-----------|--4---------------------|
---10-10--10--10---------|--2-----2-2-2-2-2-------|
-12-----12---------------|--0-----0-0-0-0-0-------|
-------------------------|------------------------|
(Jay's Bassline)                  PM~~~~~~~

Scott
-------------------------|------------------------|
-------------------------|------------------------|
-------------------------|------------------------|
-------------------------|--2---------------------|
-------------------------|--3-----3-3-3-3-3-------|
-------------------------|--5-----5-5-5-5-5-------|
                                  PM~~~~~~~

0:04-0:21
Steve
-----------------------------------------------|
-----------------------------------------------|
-10-----------------------------5-----7--------|
-10---10--------------3p0---5/7---7p5---5/7----|
-8----10------0-0-3h5-----3--------------------|
------8----------------------------------------|

Scott
-----------------------------------------------|
-------------13/12-12-12-----------------------|
-14/12-12-12-----------------------------------|
-------------10/9--9--9---7-------5------------|
-12/10-10-10--------------7-------5------------|
--------------------------5-5-5-5-3-3-3-3------|
                            PM~~~   PM~~~~

Steve
-----------------------------------------------|
-----------------------------------------------|
-10---9--7---------------------5----7----------|
-10---9--7-5---------3p0---5/7--7p5---5/7------|
-8----7--5-5-0-0-3h5-----3---------------------|
-----------3-----------------------------------|

Scott
-----------------------------------------------|
-----------------------------------------------|
-10---9--7-------------------------------------|
-10---9--7-5--7---------7----------------------|
-8----7--5-5--7---------7----------------------|
-----------3--5-5-5-5-5-5-5-5-5-5-5------------|
                PM~~~~~   PM~~~~~~~

Steve
-----------------------------------------------|
-----------------------------------------------|
-10-----------------------------5-----7--------|
-10---10--------------3p0---5/7---7p5---5/7----|
-8----10------0-0-3h5-----3--------------------|
------8----------------------------------------|

Scott
-----------------------------------------------|
-------------13/12-12-12-----------------------|
-14/12-12-12-----------------------------------|
-------------10/9--9--9---7-------7------------|
-12/10-10-10--------------7-------7------------|
--------------------------5-5-5-5-5-5-5-5------|
                            PM~~~   PM~~~~

Steve
---------------------------------|
---------------------------------|
---------------------------------|
-10-10-10------7-7---------------|
-8--8--7--10---5-5-3----3--------|
----------8--7-------3-4--4------|

Scott
---------------------------------|
---------------------------------|
-14-14-12-10-9---12-12-10--------|
---------------------------------|
-12-12-10-8--7---10-10-8--0h7----|
---------------------------------|

0:21-

STEVE
G                    A/A#
Remember never needing sorted explanations,
   F               D#             A#                 C
Never had to think about it, Never had to wonder where you're coming from
G                   A/A#
It's these complexities that scrambled our relations
       F            D#              A#
Wondered why we thought about an open door
         C
when all the walls


SCOTT
Let these notes ring out.
---------------------------------------------------|
---------------------------------------------------|
-5---7-9----7----5----9--10------------------------|
---------------------------------------------------|
-3---5-7----5----3----7--8-------------------------|
---------------------------------------------------|
"Remember.."

---------0----1----0---0h1p0----3-------3------3---|
-----1-----1----1----1--------5---5---5--5---3---3-|
-2-2---2----2----2----------5-------5------4-------|
---------------------------------------------------|
---------------------------------------------------|
---------------------------------------------------|
"It's these complexities.."

-----1-------3----------12----|
---1---1---5---5-----10-------|
-2-------5-------7------------|
------------------------------|
------------------------------|
------------------------------|

0:39-
"Are coming down"

BOTH (repeat 4 times)             2.  4.
--------------------------------|---|---|
--------------------------------|---|---|
-3p2---2----3p2---3--3p2--------|---|---|
-----3-2--------3-3------3-3----|-2-|-5-|
-------0----------1--------3----|-2-|-5-|
---------------------------1----|-0-|-3-|

0:59-
Chorus

        G            F             D#
It's not a wait this time, now it's over
       A#             F             C           F
All along, you were there, but it's not going anywhere
        G             F         D#
Don't explain, don't try, cause its over
       A#          F         C                  G
my memories, fixed in stone, petrified and seperated all alone.


Scott plays this fancy riff over the chorus
-----5-----3--------------12-------|
-------------3---------10----------|
---5-----------4----10-------------|
-7---------------------------------|
-----------------------------------|
-----------------------------------|

The next verse repeats the same as first, with scott playing steves
part instead of the second riff..

2:23-2:35
Sweet! INTERLUDE

This is kinda tough to get the rhythm.. It's kind of a
galloping feel, triplets palm muted. Really rad, and really
fun to play.

Steve
-----------------------------------------|
-----------------------------------------|
-----------------------------------------|
-----------------------------------------|
-7-x-x-5-x-x-3-x-x-2-x-x---3h5p3/2p0-3---|
-----------------------------------------|

Scott
-----------------------------------------|
-----------------------------------------|
-----------------------------------------|
-7-x-x-5-x-x-3-x-x-2-x-x---2h3p2p0---2---|
-----------------------------------3-----|
-----------------------------------------|

Steve
-----------------------------------------|
-----------------------------------------|
-----------------------------------------|
-----------------------------------------|
-7-x-x-5-x-x-3-x-x-2-x-x-----------------|
--------------------------5-7-8-7-5------|

Scott
-----------------------------------------|
-----------------------------------------|
-----------------------------------------|
-7-x-x-5-x-x-3-x-x-2-x-x-----------------|
--------------------------5-7-8-7-5------|
-----------------------------------------|

2:37-
Steve
---------------------------------------|
---------------------------------------|
---7-------7------7---------9----------|
-5---5-7-7--7-8-8---8-10-10------------|
---------------------------------------|
---------------------------------------|

Scott
---------------------------------------|
---------------------------------------|
-12------------------------------------|
---------------------------------------|
-10------------------------------------|
---------------------------------------|
Let's this octave ring, and then starts making crazy sounds
with his palm along the fretboard.. improvise people.

And that's pretty much it.. Hope you can work around it alright.. Alot
of the parts just repeat themselves. Enjoy
exibições 2.304
Acordes para:
    Composição: Belvedere / Steve Rawles

    0 comentários

    mostrar mais comentários

    Conseguiu tocar?

    0 tocaram 0 ainda não

    Grave um vídeo tocando Closed Doors e mande pra gente!

    00:00 / 00:00
    outros vídeos desta música
    repetir qualidade Automático
    Outros vídeos desta música
    00:00 / 00:00
    Automático
    OK