Cifra Club

Aprenda

Diamonds on the inside

Ben Harper

Cifra: Principal (violão e guitarra)
tom: Ab (forma dos acordes no tom de G) Capotraste na 1ª casa
O tom original é com um capotraste (braçadeira) na primeira casa do violão, mas você pode subir a afinação das cordas em meio-tom (ficaria f-C-G#-D#-A#-F) para tocar ou simplesmente tocar na afinação padrão do violão, vai ficar legal do mesmo jeito!


Riff1
    G
E|------------------|
B|------------------|
G|-0----------------|
D|----2p0-----------|
A|--------2p0-------|
E|------------3p0---|

Riff2
E|---------------|
B|---------------|
G|---------------|
D|---------------|
A|------0--------|
E|--3s4----------|

Riff3
E|---------------|
B|---------------|
G|---------------|
D|---------------|
A|--0/2----------|
E|---------------|

Riff4
E|---------------|
B|---------------|
G|-----0h2p0-----|
D|-0h2-------2---|
A|---------------|
E|---------------|

(Riff1) G
        I knew a girl
(Riff2) Am
        Her name was truth
(Riff3) Bm         Am       G
        She was a horrible liar.

        G
        She couldnt spend
(Riff2) Am
        one day alone
(Riff3) Bm                 Am        G
        But she couldnt be satisfied.

        G
        When you have
(Riff2) Am
        everything,
(Riff3)          Bm       Am   G
        You have everything to lose.

        G
        She made herself
(Riff2) Am
        A bed of nails
(Riff3)          Bm          Am            G
        And shes plannin' on puttin' it to use.


(Riff1)             F          C (Riff4)      G
        Cos she had diamonds on       the inside
(Riff1)         F         C (Riff4)      G
        She had diamonds on       the inside
(Riff1)         F          C (Riff4)       G
        She had diamonds on       the inside
(Riff1) F  C (Riff4) G
        Di-a       monds

(Riff1)        G                      (Riff2)             Am
        A candle throws its light into       the darkness
(Riff3)          Bm         Am                G
        In a nasty world,so shines the good deed
        G                      (Riff2) Am
        Make sure the fortune,         that you seek
(Riff3)        Bm      Am       G
        Is the fortune that you need.

G              (Riff2) Am               (Riff3)                Bm       Am    G
So tell me why,        the first to ask,       is the last to give,everytime
            (Riff2)           Am
What you say       and do not mean
(Riff3)Bm         Am      G
       Follow too close behind


(Riff1)            F         C (Riff4)       G
       Cos she had diamonds on      the inside
(Riff1)        F         C (Riff4)      G
       She had diamonds on       the inside
(Riff1)         F         C (Riff4)      G
       She wore diamonds on       the inside
(Riff1)F  C (Riff4) G
       Di-a       monds
(Riff1)F  C (Riff4) G    (Riff1)
       Di-a       monds

(Riff1)G                                 (Riff2)    Am
       Like a soldier standing long under        fire
(Riff3)Bm         Am           G
       Any change comes as a relief.
       G                               (Riff2)    Am
       Let the giver's name remain uns-       poken
(Riff3)           Bm         Am        G
       For she is just a generous thief.


(Riff1)            F         C (Riff4)       G
       But she had diamonds on        the inside
(Riff1)            F         C (Riff4)      G
       Cos she had diamonds on       the inside
(Riff1)         F         C (Riff4)       G
       She wore diamonds on        the inside
(Riff1)         F  C (Riff4) G
       She wore di-a       monds
(Riff1)   F  C (Riff4) G
       Oh di-       amonds
(Riff1)        F  C (Riff4) G
       She had di-a       monds
(Riff1)         F  C (Riff4) G
       She wore di-a       monds
(Riff1)F  C (Riff4)   G
       Dia-       a-monds


=------=
  SOLO
=------=
O solo abaixo começa aos 02:34

    G
E|--------------------|
B|8---8---------------|
G|7h9-7---7-----------|
D|--------7h9-p7--5---|
A|------------------5-|
E|--------------------|

    D                    C
E|--------------------|--------------------|
B|--------------------|--------------------|
G|--------------------|--------------------|
D|7-------------7-----|5-------------5-----|
A|5----5-(7)/9----9---|3----3-(5)/7----7---|
E|--------------------|--------------------|

    Em                   Em
E|----0----------0----|--------------------|
B|------0--(3)b5---0--|3-------------------|
G|2/4-----------------|--(4)r2p0-----------|
D|--------------------|----------2p0-------|
A|--------------------|--------------2p0---|
E|--------------------|--------------------|

    C                    D
E|--------------------|--------------------|
B|--------------------|--------------------|
G|--------------------|--------------------|
D|5-------------5-----|7-------------7-----|
A|3----3-(5)/7----7---|5----5-(7)/9----9---|
E|--------------------|--------------------|

    Em                   Em
E|--------------------|--------------------|
B|8p7-----------------|8-------------------|
G|----9-7--9v---------|7h9-7-----------7---|
D|--------------------|------97-5-7/9---9-|
A|--------------------|--------------------|
E|--------------------|--------------------|

    C                    D
E|--------------------|--------10---------------------|
B|----------8-10--8---|(10)b12----(12)r10-8--10p8---8-|
G|7h9--7-9------------|---------------------------9---|
D|--------------------|-------------------------------|
A|--------------------|-------------------------------|
E|--------------------|-------------------------------|

    Em                   Em
E|--------------------|--------------------|
B|(10)b12°-8----------|--------------------|
G|-----------9-9------|7h9-7---------------|
D|--------------------|------97-5-7p5-----|
A|--------------------|----------------7--|
E|--------------------|--------------------|

    C                    C
E|--------------------|--------------------|
B|6p5-----------------|-----------8--------|
G|-----7p5-------5-5--|5-7p5--7/9----------|
D|----------5h7-------|--------------------|
A|--------------------|--------------------|
E|--------------------|--------------------|

    D                    D
E|--------------------|--------------------|
B|8p7-----------------|--------------------|
G|-----9p7-------7-7--|7-9p7-(9)b11-------|
D|----------7h9-------|--------------------|
A|--------------------|--------------------|
E|--------------------|--------------------|
Composição de Ben Harper
412.640 exibições
    • ½ Tom
    • A
    • Bb
    • B
    • C
    • Db
    • D
    • Eb
    • E
    • F
    • F#
    • G
    • Ab
  • Adicionar à lista

    0 comentários

    Ver todos os comentários

    Conseguiu tocar?

    27 Tocaram 2 Ainda não

    Grave um vídeo tocando Diamonds on the inside e nos envie!

    00:00 / 00:00
    outros vídeos desta música
    repetir qualidade Automático
    Outros vídeos desta música
    00:00 / 00:00
    Automático

    Cifra Club Pro

    Aproveite o Cifra Club com benefícios exclusivos e sem anúncios
    Cifra Club Pro
    Aproveite o Cifra Club com benefícios exclusivos e sem anúncios
    OK