Cifra Club

Aprenda

Forever

Ben Harper

Cifra: Principal (violão e guitarra)
Já pensou em usar uma coleção de roupas do Cifra Club? Responda as perguntas abaixo e nos ajude nessa missão! →
tom: C
Intro:

    Am7     F     G        Am          Am7     F    G
e|----------------------------------|-----------------------------|
B|----0h1---1-----0-0-------0h1-----|----0h1---1-------3-3--3-----|
G|----0-----2-----0-0------2---2-0--|----0-----2-------0-0--0-----|
D|----2-----3-----0-0-----2-----2---|----2-----3-------0-0--0-----|
A|-0---------------------0----------|--0--------------------------|
E|--------------3-------------------|---------------3-------3-----|

Verse:
     Am7    D9/A   Am 
e|---------------------------------------|
B|----0h1-----3------0h1-----------------|
G|----0-----2-------2---2-2-0------------|
D|----2-----0------2-----2-2-------------|
A|--0-0-----0-----0----------------------|
E|---------------------------------------|
  Not talkin' bout a year........

 So give me your, forever..

>From you.....
        Am7     C     G
e|--------------0----------------------|
B|-------0h1----1-----3----------------|
G|-------0------0-----0----------------|
D|-------2------------0----------------|
A|-----0-0------3----------------------|
E|--------------------3----------------|


Not talkin' bout a year, no not three or four
I don't want that kind of forever in my life anymore
Forever always seems to be around when it begins
But forever never seems to be around when it ends
So give me your forever
Please your forever
Not another day less will do
>From you
People spend so much time every single day
Runnin' round all over town giving their forever way
But no not me I won't let my forever roam 
And now i hope i can find my forever a home
Chorus
Like a handless clock with numbers an infinite of time
No not the forever found only in the mind
Forever always seems to be around when things begin
But forever always seems to be around when things end                       
              
Chorus
Composição de Ben Harper
Colaboração e revisão:
  • André Brum
44.735 exibições
    • ½ Tom
    • A
    • Bb
    • B
    • C
    • Db
    • D
    • Eb
    • E
    • F
    • F#
    • G
    • Ab
  • Adicionar à lista

    0 comentários

    Ver todos os comentários

    Conseguiu tocar?

    0 Tocaram 0 Ainda não

    Grave um vídeo tocando Forever e nos envie!

    00:00 / 00:00
    Outros vídeos desta música
    Repetir Qualidade Automático
    Outros vídeos desta música
    00:00 / 00:00
    Automático

    Cifra Club Pro

    Aproveite o Cifra Club com benefícios exclusivos e sem anúncios
    Cifra Club Pro
    Aproveite o Cifra Club com benefícios exclusivos e sem anúncios
    OK