Cifra Club

Aprenda

Walk Away

Ben Harper

Cifra: Principal (violão e guitarra)
tom: G
Intro:
E|--------3---3------3---3------3---3--------3---3-|
B|--------3---3------3---3------3---3--------3---3-|
G|--------0---0------0---0------0---0--------0---0-|
D|-------------------------------------------------|
A|-------------------------------------------------|
E|---3-3--------2-2--------0-0--------0h2-2--------|

E|--------3---3------3---3------3---3-----|
B|--------3---3------3---3------3---3-----|
G|--------0---0------0---0------0---0-----|
D|----------------------------------------|
A|----------------------------------------|
E|---3-3--------2-2--------0-0--------0h2-|

Riff 1
E|--------3---3------3---3------3---3--------3---3-|
B|--------3---3------3---3------3---3--------3---3-|
G|--------0---0------0---0------0---0--------0---0-|
D|-------------------------------------------------|
A|-------------------------------------------------|
E|---3-3--------2-2--------0-0--------0h2-2--------|

Chorus:
E|--------3---3------3---3------3---3------3---3-  |
B|--------3---3------3---3------3---3------3---3-  |
G|--------0---0------0---0------0---0------0---0-  |
D|-----------------------------------------------  | 2x
A|---3-3--------2-2--------0-0-------------------  |
E|------------------------------------3-3--------  |

E|--------3---3------3---3------3---3--------3---3-|
B|--------3---3------3---3------3---3--------3---3-|
G|--------0---0------0---0------0---0--------0---0-|
D|-------------------------------------------------|
A|---3-3--------2-2--------0-0---------------------|
E|------------------------------------0h2-2--------|

Riff 2
E|--------0---0------0---0------0---0------0---0-|
B|--------1---0------0---3------3---3------3---3-|
G|--------2---0------0---2------2---2------2---2-|
D|-----------------------------------------------|3x
A|---0-0-----------------------------------------|
E|--------------0-0--------3-3--------2-2--------|

E|--------0---0------0---0------0---0------0---0-|
B|--------1---0------0---3------3---3------3---3-|
G|--------2---0------0---2------2---2------2---2-|
D|-----------------------------------------------|
A|---0-0-----------------------------------------|
E|--------------0-0--------2-2--------2-2--------|

Intro

Riff 1
oh no here comes that sun again
that means another day without you my friend
and it hurts me to look into the mirror at myself
and it hurts even more to have to be with somebody else

Chorus
and it's so hard to do and so easy to say
but sometimes sometimes you just have to walk away
walk away

Riff 1
with so many people to love in my life
why do i worry about one
but you put the happy in my ness
you put the good times into my fun

Chorus
and it's so hard to do and so easy to say
but sometimes sometimes you just have to walk away
walk away

Riff 2
we've tried the goodbye so many days
we walk in the same direction so that we could never stray
they say if you love somebody then you have got to set them free
but i would rather be locked to you than live in this pain and misery

Riff 1
they say time will make all this go away
but it is time that has taken my tomorrows and turned them into yesterdays
and once again that rising sun is droppin' on down
once again you my friend are nowhere to be found

Chorus
and it's so hard to do and so easy to say
but sometimes sometimes you just have to walk away
walk away

Riff 1
Composição de Ben Harper
Colaboração e revisão:
  • Lucas Abreu
  • NDS NDS
72.851 exibições
    • ½ Tom
    • A
    • Bb
    • B
    • C
    • Db
    • D
    • Eb
    • E
    • F
    • F#
    • G
    • Ab
  • Adicionar à lista

    0 comentários

    Ver todos os comentários

    Conseguiu tocar?

    8 Tocaram 0 Ainda não

    Grave um vídeo tocando Walk Away e nos envie!

    00:00 / 00:00
    outros vídeos desta música
    repetir qualidade Automático
    Outros vídeos desta música
    00:00 / 00:00
    Automático

    Cifra Club Pro

    Aproveite o Cifra Club com benefícios exclusivos e sem anúncios
    Cifra Club Pro
    Aproveite o Cifra Club com benefícios exclusivos e sem anúncios
    OK