Cifra Club

Carcel

Bengala

Cifra: Principal (violão e guitarra)
tom: C#m
Intro

Guitarra 1

E|-x-x-x-x-x-x-x-x-x-x-x-x-x-x-|
B|-x-x-x-x-x-x-x-x-x-x-x-x-x-x-|
G|-x-x-9-x-x-9-x-x-9-x-x-9-9-9-| x8
D|-x-x-x-x-x-x-x-x-x-x-x-x-x-x-|
A|-x-x-x-x-x-x-x-x-x-x-x-x-x-x-|
E|-x-x-x-x-x-x-x-x-x-x-x-x-x-x-|

Nota: Esto se toca cuando entra la guitarra 2 (abajo)
      "del traste 9 pasas al 12 y regresas al 9"

E|-x-x-x-x-x-x-x-x-x-x-x-x-x-x-| -x-x--x-x-x--x-x-x--x-x-x--x--x--x-|
B|-x-x-x-x-x-x-x-x-x-x-x-x-x-x-| -x-x--x-x-x--x-x-x--x-x-x--x--x--x-|
G|-x-x-9-x-x-9-x-x-9-x-x-9-9-9-x3| -x-x-12-x-x-12-x-x-12-x-x-12-12-12-|x2
D|-x-x-x-x-x-x-x-x-x-x-x-x-x-x-| -x-x--x-x-x--x-x-x--x-x-x--x--x--x-|
A|-x-x-x-x-x-x-x-x-x-x-x-x-x-x-| -x-x--x-x-x--x-x-x--x-x-x--x--x--x-|
E|-x-x-x-x-x-x-x-x-x-x-x-x-x-x-| -x-x--x-x-x--x-x-x--x-x-x--x--x--x-|
                             Todo x2
Guitarra 2

E|-----------------------------------------------12----------------12----|
B|-----------13----------------13-------------13----13----------13----13-|
G|--------14----14----------14----14-14-14-14----------14-14-14----------|
D|--12-12----------12-12-12----------------------------------------------|
A|-----------------------------------------------------------------------|
E|-----------------------------------------------------------------------|

E|-----------------------------------------------------------------|
B|--------------------------------------------10-10-10-10-10-10-10-|
G|-/9-9-9-9-9-9-9-9-9----------------------------------------------|
D|--------------------11-11-11-11-10-10-10-10----------------------|
A|-----------------------------------------------------------------|
E|-----------------------------------------------------------------|

E|----------------------|
B|----------------------|
G|-10-10-10-10-9-9-9-9--| x2
D|----------------------|
A|----------------------|
E|----------------------|

No te voy a bajar una estrella
te voy a mandar en una de ellas
para que te vallas lejos
para que ya no me estes diciendo esooo!!

Guitarra 1

      Fig 1           Fig 2          Fig 3
E|-------13-13-| -------9-9-    -------9-9-|
B|-15-15-------| -11-11-----    -10-10-----|
G|-------------| x4 ----------- x4 -----------| x4 (y todo junto x2)
D|-------------| -----------    -----------|
A|-------------| -----------    -----------|
E|-------------| -----------    -----------|

No, no me digas que no te quise
si me canse de decirtelo
y aunque te vallas lejos
yo no me olvido de lo que has dicho y hecho

    Fig 1
Tu destelloooo
    Fig 2
me destroza y me deja
    Fig 3
Quietoooooooooo!!!

  Dm                    Am
Puede ser que me ponga a planear
  Dm                    Am
puede ser un banco o algo mas
  Dm                    Am
puede ser que pueda terminar
  C#m                Bm
en la carcel, por tu culpa
  C#m                D#m
en la carcel, de rodillas si te vas

Guitarra 1 "del traste 9 pasas al 12 y regresas al 9"

E|-x-x-x-x-x-x-x-x-x-x-x-x-x-x-| -x-x--x-x-x--x-x-x--x-x-x--x--x--x-|
B|-x-x-x-x-x-x-x-x-x-x-x-x-x-x-| -x-x--x-x-x--x-x-x--x-x-x--x--x--x-|
G|-x-x-9-x-x-9-x-x-9-x-x-9-9-9-x3| -x-x-12-x-x-12-x-x-12-x-x-12-12-12-|
D|-x-x-x-x-x-x-x-x-x-x-x-x-x-x-| -x-x--x-x-x--x-x-x--x-x-x--x--x--x-|
A|-x-x-x-x-x-x-x-x-x-x-x-x-x-x-| -x-x--x-x-x--x-x-x--x-x-x--x--x--x-|
E|-x-x-x-x-x-x-x-x-x-x-x-x-x-x-| -x-x--x-x-x--x-x-x--x-x-x--x--x--x-|

Guitarra 2

E|-----------------------------------------------12----------------12----|
B|-----------13----------------13-------------13----13----------13----13-|
G|--------14----14----------14----14-14-14-14----------14-14-14----------|
D|--12-12----------12-12-12----------------------------------------------|
A|-----------------------------------------------------------------------|
E|-----------------------------------------------------------------------|

E|-----------------------------------------------------------------|
B|--------------------------------------------10-10-10-10-10-10-10-|
G|-/9-9-9-9-9-9-9-9-9----------------------------------------------|
D|--------------------11-11-11-11-10-10-10-10----------------------|
A|-----------------------------------------------------------------|
E|-----------------------------------------------------------------|

E|----------------------|
B|----------------------|
G|-10-10-10-10-9-9-9-9--|
D|----------------------|
A|----------------------|
E|----------------------|

No, no me digas que no te quise
si me canse de decirtelo
y aunque te vallas lejos
yo no me olvido de lo que has dicho y hecho

    Fig 1
Tu destelloooo
    Fig 2
me destroza y me deja
    Fig 3
Quietoooooooooo!!!

  Dm                    Am
Puede ser que me ponga a planear
  Dm                    Am
puede ser un banco o algo mas
  Dm                    Am
puede ser que pueda terminar
  C#m                Bm
en la carcel, por tu culpa
  C#m                D#m
en la carcel, de rodillas si te vas

Guitarra 1 "del traste 9 pasas al 12 y regresas al 9"

E|-x-x-x-x-x-x-x-x-x-x-x-x-x-x-| -x-x--x-x-x--x-x-x--x-x-x--x--x--x-|
B|-x-x-x-x-x-x-x-x-x-x-x-x-x-x-| -x-x--x-x-x--x-x-x--x-x-x--x--x--x-|
G|-x-x-9-x-x-9-x-x-9-x-x-9-9-9-x2| -x-x-12-x-x-12-x-x-12-x-x-12-12-12-|x2
D|-x-x-x-x-x-x-x-x-x-x-x-x-x-x-| -x-x--x-x-x--x-x-x--x-x-x--x--x--x-|
A|-x-x-x-x-x-x-x-x-x-x-x-x-x-x-| -x-x--x-x-x--x-x-x--x-x-x--x--x--x-|
E|-x-x-x-x-x-x-x-x-x-x-x-x-x-x-| -x-x--x-x-x--x-x-x--x-x-x--x--x--x-|
                             Todo x2
Acordes:
Compositor não encontrado.
    • ½ Tom
    • Am
    • Bbm
    • Bm
    • Cm
    • C#m
    • Dm
    • Ebm
    • Em
    • Fm
    • F#m
    • Gm
    • G#m
  • Adicionar à lista

    0 comentários

    Ver todos os comentários

    Conseguiu tocar?

    0 Tocaram 0 Ainda não

    Grave um vídeo tocando Carcel e nos envie!

    00:00 / 00:00
    Outros vídeos desta música
    Repetir Qualidade Automático
    Outros vídeos desta música
    00:00 / 00:00
    Automático

    Cifra Club Pro

    Aproveite o Cifra Club com benefícios exclusivos e sem anúncios
    Cifra Club Pro
    Aproveite o Cifra Club com benefícios exclusivos e sem anúncios
    OK