Cifra Club

Carretera

Bengala

Cifra: Principal (violão e guitarra)
tom: Cm
E|--3----|
B|--4----|
G|--5----|
D|--5----|
A|--3----|
E|--x----|

00:40 Esta parte se usa en los Coros

Guitarra 1
E|-------------------------------------------------|
B|---13-----13----13-------15----15----16--15--15--|
G|-----15-----15-----x2------15----15--------------|
D|-13-----13----13-------13----13----13--13--13----|
A|-------------------------------------------------|
E|-------------------------------------------------|

Guitarra 2
E|-----------------------|
B|-----------------------|
G|--5-------7-----8------|
D|----x12-----x6----x6---|
A|--6-------6-----6------|
E|-----------------------|

1:14 Pre Coro

Yo te creo        y  me tiro sin frenos

E|-----------------------1-1-1-1-1-----------|
B|-----------------------3-3-3-3-3-----------|
G|-5-----------------3---3-3-3-3-3-----------|
D|-5-x8--6-----3-----3---3-3-3-3-3-----------|
A|-3-----6-x8--3-x8--1---1-1-1-1-1-----------|
E|-------4-----1-----------------------------|


1:49 Después del segundo coro. Escuchen para saber el rasgueo

E|--8-------8-------8--8---|
B|--8-x3----11-x2---9--8---|
G|--8-------8-------8--8---|
D|-------------------------|
A|-------------------------|
E|-------------------------|

2:58 Después del tercer coro.
Guitarra 1
E|-9-------16-----15-------|
B|-9-x16---12-x8--11-x8----|
G|-9-------13-----12-------|
D|-------------------------|
A|-------------------------|
E|-------------------------|

Guitarra 2. Con un delay y con un pedal de expresión o volumen
E|-9v--7v--5v--3v---|
B|------------------|
G|------------------|
D|------------------|
A|------------------|
E|------------------|
Composição de Bengala
    • ½ Tom
    • Am
    • Bbm
    • Bm
    • Cm
    • C#m
    • Dm
    • Ebm
    • Em
    • Fm
    • F#m
    • Gm
    • G#m
  • Adicionar à lista

    0 comentários

    Ver todos os comentários

    Conseguiu tocar?

    0 Tocaram 0 Ainda não

    Grave um vídeo tocando Carretera e nos envie!

    00:00 / 00:00
    Outros vídeos desta música
    Repetir Qualidade Automático
    Outros vídeos desta música
    00:00 / 00:00
    Automático

    Cifra Club Pro

    Aproveite o Cifra Club com benefícios exclusivos e sem anúncios
    Cifra Club Pro
    Aproveite o Cifra Club com benefícios exclusivos e sem anúncios
    OK