Cifra Club

Eternidad

Bengala

Cifra: Principal (violão e guitarra)
tom: G

1
E|-2-----------2--------|
B|-------1-----------1--|
G|----2-----------2-----|
D|-0--------0-----------|
A|----------------------|
E|----------------------|

2
E|-3----------3--|
B|----0--1p0-----|
G|---------------|
D|-0----------0--|
A|---------------|
E|---------------|

3
E|-7-----5-----3-----2--0--|
B|-------------------------|
G|----0-----0-----0--------|
D|-------------0-----0--0--|
A|-7-----3-----------------|
E|-------------------------|

4
E|-8-----------8-----------|
B|-------8-----------8-----|
G|----9-----------9--------|
D|-0--------0--------------|
A|-------------------------|
E|-------------------------|

5
E|-7-----------7-----------|
B|-------8-----------8-----|
G|----9-----------9--------|
D|-0--------0--------------|
A|-------------------------|
E|-------------------------|

6
E|-5-----------5-----------|
B|-------7-----------7-----|
G|----7-----------7--------|
D|-0--------0--------------|
A|-------------------------|
E|-------------------------|

7
E|-10-------------10-----------|
B|---------10-------------10---|
G|-----11-------------11-------|
D|--0----------0---------------|
A|-----------------------------|
E|-----------------------------|

8
E|-12-------------12-----------|
B|---------13-------------13---|
G|-----14-------------14-------|
D|-----------------------------|
A|--0----------0---------------|
E|-----------------------------|

9
E|-12-------------12-----------|
B|---------13-------------13---|
G|-----12-------------12-------|
D|-----------------------------|
A|--0----------0---------------|
E|-----------------------------|

9*
E|-12-------------15-----------|
B|---------13-------------13---|
G|-----12-------------12-------|
D|-----------------------------|
A|--0----------0---------------|
E|-----------------------------|

10
E|-12--------------12----------|
B|---------12--------------12--|
G|-----12--------------12------|
D|-----------------------------|
A|-10----------10--------------|
E|-----------------------------|

11
E|-14-------------14-----------|
B|---------15-------------15---|
G|-----14-------------14-------|
D|--0----------0---------------|
A|-----------------------------|
E|-----------------------------|

12
E|-15-------------15-----------|
B|---------17-------------17---|
G|-----16-------------16-------|
D|-----------------------------|
A|--0----------0---------------|
E|-----------------------------|

13
E|-5--3--5------|
B|--------------|
G|--------------|
D|-0--0--0------|
A|--------------|
E|--------------|

Intro:

1, 2, 3, 1, 4, 5, 6

1
No estas para saberlo ni yo
2
para contar
     3
pero antes de que tu llegaras
no tenia nada
1
Un montón de horas que
    4           5   6
prefiero olvidar

1
Ideas de grandeza que no
2
me sirven mas
  3
deseos y deseos
               1
y deseos y deseos
              4       5
Pero ahora estas aquí
        6
y solo pienso en ti


  7                8
Y cuando estamos juntos
       9        10
el dolor desaparece
  7                8
y cuando estamos juntos
       9*       10
mi dolor desaparece


  11
Y podemos soñar
        8
por un día mas
12
con la eternidad
         11
con la eternidad
7
podemos soñar
       4
por un día mas
5  13  6
uhhh


E|------------------------------|
B|------------------------------|
G|-0--2--------0-----0----------|
D|----------0-----2-----4-----0-|
A|-------3-----------------3----|
E|------------------------------|

E|------------------------------------------------------|
B|------------------------------------------------------|
G|--------------------------0--2--4--2---0--------------|
D|----------0--2--0---2--4------------------4--2--0-----|
A|----0--3----------------------------------------------|
E|-3----------------------------------------------------|

1
Ahora me doy cuenta que
    2
no me importan ya
     3
las cosas que en un tiempo
nublaron mi pensamiento
1
anhelos pasajeros
      4         5     6
como vienen se van

1
Ideas de grandeza que no
2
me sirven mas
  3
deseos y deseos
               1
y deseos y deseos
              4
Pero ahora estas aquí
        5            6
y solo pienso en ti


  7                8
Y cuando estamos juntos
       9        10
el dolor desaparece
  7                8
y cuando estamos juntos
       9*       10
mi dolor desaparece


  11
Y podemos soñar
        8
por un día mas
12
con la eternidad
         11
con la eternidad
7
podemos soñar
       4
por un día mas
5  13  6
uhhh

 11
Y podemos soñar
        8
por un día mas
12
con la eternidad
         11
con la eternidad
7
podemos soñar
       4
por un día mas
5  13  6
uhhh

E|------------------------------|
B|------------------------------|
G|-0--2--------0-----0----------|
D|----------0-----2-----4-----0-|
A|-------3-----------------3----|
E|------------------------------|

E|------------------------------------------------------|
B|------------------------------------------------------|
G|--------------------------0--2--4--2---0--------------|
D|----------0--2--0---2--4------------------4--2--0-----|
A|----0--3----------------------------------------------|
E|-3----------------------------------------------------|
Composição de Diego Suárez
    • ½ Tom
    • A
    • Bb
    • B
    • C
    • Db
    • D
    • Eb
    • E
    • F
    • F#
    • G
    • Ab
  • Adicionar à lista

    0 comentários

    Ver todos os comentários

    Conseguiu tocar?

    0 Tocaram 0 Ainda não

    Grave um vídeo tocando Eternidad e nos envie!

    00:00 / 00:00
    Outros vídeos desta música
    Repetir Qualidade Automático
    Outros vídeos desta música
    00:00 / 00:00
    Automático

    Cifra Club Pro

    Aproveite o Cifra Club com benefícios exclusivos e sem anúncios
    Cifra Club Pro
    Aproveite o Cifra Club com benefícios exclusivos e sem anúncios
    OK